999
dxflib 2.0.4.8
  0
SECTION
  2
HEADER
  9
$ACADVER
  1
AC1015
  9
$HANDSEED
  5
FFFF
  9
$DIMTAD
 70
1
  9
$USERR4
 40
0.0
  9
$VIEWSIZE
 40
2021.0410999999999149
  9
$CLAYER
  8
0
  9
$MENU
  1
.
  9
$CHAMFERA
 40
10.0
  9
$ATTREQ
 70
1
  9
$UCSYDIR
 10
0.0
 20
1.0
 30
0.0
  9
$USERR5
 40
0.0
  9
$SHADEDIF
 70
70
  9
$TILEMODE
 70
1
  9
$VISRETAIN
 70
1
  9
$EXTMIN
 10
-2048.9792999999999665
 20
0.0
 30
0.0
  9
$ORTHOMODE
 70
0
  9
$REGENMODE
 70
1
  9
$TRACEWID
 40
1.0
  9
$DIMASZ
 40
2.5
  9
$CHAMFERB
 40
10.0
  9
$UCSXDIR
 10
1.0
 20
0.0
 30
0.0
  9
$MEASUREMENT
 70
1
  9
$DIMSHO
 70
1
  9
$DIMALT
 70
0
  9
$DIMSAH
 70
0
  9
$DIMTFAC
 40
1.0
  9
$DIMGAP
 40
0.625
  9
$SKETCHINC
 40
1.0
  9
$USRTIMER
 70
1
  9
$ANGBASE
 50
0.0
  9
$PUCSYDIR
 10
0.0
 20
1.0
 30
0.0
  9
$LIMMIN
 10
0.0
 20
0.0
  9
$DIMTSZ
 40
0.0
  9
$SPLFRAME
 70
0
  9
$SURFTYPE
 70
6
  9
$PUCSXDIR
 10
1.0
 20
0.0
 30
0.0
  9
$DWGCODEPAGE
  3
ANSI_1252
  9
$LUNITS
 70
2
  9
$AUPREC
 70
0
  9
$BLIPMODE
 70
0
  9
$SPLINESEGS
 70
8
  9
$SURFTAB1
 70
6
  9
$INSBASE
 10
0.0
 20
0.0
 30
0.0
  9
$DIMRND
 40
0.0
  9
$DIMCEN
 40
2.5
  9
$ELEVATION
 40
0.0
  9
$SKPOLY
 70
0
  9
$SURFTAB2
 70
6
  9
$USERI1
 70
0
  9
$UNITMODE
 70
0
  9
$INSUNITS
 70
0
  9
$EXTMAX
 10
0.0
 20
977.5416000000000167
 30
0.0
  9
$FILLMODE
 70
1
  9
$DRAGMODE
 70
2
  9
$TEXTSIZE
 40
2.5
  9
$DIMEXO
 40
0.625
  9
$PELEVATION
 40
0.0
  9
$UCSORG
 10
0.0
 20
0.0
 30
0.0
  9
$USERI2
 70
0
  9
$VIEWCTR
 10
-982.5000999999999749
 20
136.2262000000000057
  9
$DIMSCALE
 40
1.0
  9
$DIMDLE
 40
0.0
  9
$DIMZIN
 70
8
  9
$TDUSRTIMER
 40
0.0082825116
  9
$ANGDIR
 70
0
  9
$SURFU
 70
6
  9
$USERI3
 70
0
  9
$LIMMAX
 10
420.0
 20
297.0
  9
$QTEXTMODE
 70
0
  9
$OSMODE
 70
37
  9
$SURFV
 70
6
  9
$USERI4
 70
0
  9
$WORLDVIEW
 70
1
  9
$ATTMODE
 70
1
  9
$DIMTXT
 40
2.5
  9
$DIMLIM
 70
0
  9
$DIMSE1
 70
0
  9
$THICKNESS
 40
0.0
  9
$LIMCHECK
 70
0
  9
$PDMODE
 70
0
  9
$USERI5
 70
0
  9
$DIMLFAC
 40
1.0
  9
$CELTYPE
  6
BYLAYER
  9
$DIMTOH
 70
0
  9
$DIMSE2
 70
0
  9
$DIMSOXD
 70
0
  9
$LUPREC
 70
4
  9
$TDINDWG
 40
0.0082924769
  9
$SPLINETYPE
 70
6
  9
$PUCSORG
 10
0.0
 20
0.0
 30
0.0
  9
$PEXTMIN
 10
100000000000000000000.0
 20
100000000000000000000.0
 30
100000000000000000000.0
  9
$PEXTMAX
 10
-100000000000000000000.0
 20
-100000000000000000000.0
 30
-100000000000000000000.0
  9
$CECOLOR
 62
256
  9
$DIMDLI
 40
3.75
  9
$DIMTM
 40
0.0
  9
$DIMASO
 70
1
  9
$DIMTVP
 40
0.0
  9
$DIMSTYLE
  2
ISO-25
  9
$PLINEWID
 40
0.0
  9
$PLIMCHECK
 70
0
  9
$LTSCALE
 40
1.0
  9
$DIMTIH
 70
0
  9
$DIMALTD
 70
3
  9
$DIMCLRT
 70
0
  9
$FILLETRAD
 40
10.0
  9
$TDUPDATE
 40
2451579.690403588116169
  9
$MAXACTVP
 70
64
  9
$PLIMMIN
 10
0.0
 20
0.0
  9
$PLIMMAX
 10
420.0
 20
297.0
  9
$DIMEXE
 40
1.25
  9
$DIMCLRD
 70
0
  9
$PDSIZE
 40
0.0
  9
$ATTDIA
 70
0
  9
$USERR1
 40
0.0
  9
$TEXTSTYLE
  7
STANDARD
  9
$DIMTP
 40
0.0
  9
$DIMTOL
 70
0
  9
$DIMALTF
 40
0.03937007874016
  9
$DIMTOFL
 70
1
  9
$DIMCLRE
 70
0
  9
$TDCREATE
 40
2451579.5163292707875371
  9
$COORDS
 70
1
  9
$USERR2
 40
0.0
  9
$SHADEDGE
 70
3
  9
$PLINEGEN
 70
0
  9
$PSLTSCALE
 70
1
  9
$MIRRTEXT
 70
1
  9
$DIMTIX
 70
0
  9
$AUNITS
 70
0
  9
$USERR3
 40
0.0
  0
ENDSEC
  0
SECTION
  2
TABLES
  0
TABLE
  2
VPORT
  5
8
100
AcDbSymbolTable
 70
1
  0
VPORT
  5
30
100
AcDbSymbolTableRecord
100
AcDbViewportTableRecord
  2
*Active
 70
0
 10
0.0
 20
0.0
 11
1.0
 21
1.0
 12
286.3055555555554861
 22
148.5
 13
0.0
 23
0.0
 14
10.0
 24
10.0
 15
10.0
 25
10.0
 16
0.0
 26
0.0
 36
1.0
 17
0.0
 27
0.0
 37
0.0
 40
297.0
 41
1.92798353909465
 42
50.0
 43
0.0
 44
0.0
 50
0.0
 51
0.0
 71
0
 72
100
 73
1
 74
3
 75
1
 76
1
 77
0
 78
0
281
0
 65
1
110
0.0
120
0.0
130
0.0
111
1.0
121
0.0
131
0.0
112
0.0
122
1.0
132
0.0
 79
0
146
0.0
  0
ENDTAB
  0
TABLE
  2
LTYPE
  5
5
100
AcDbSymbolTable
 70
21
  0
LTYPE
  5
14
100
AcDbSymbolTableRecord
100
AcDbLinetypeTableRecord
  2
ByBlock
 70
0
  3

 72
65
 73
0
 40
0.0
  0
LTYPE
  5
15
100
AcDbSymbolTableRecord
100
AcDbLinetypeTableRecord
  2
ByLayer
 70
0
  3

 72
65
 73
0
 40
0.0
  0
LTYPE
  5
16
100
AcDbSymbolTableRecord
100
AcDbLinetypeTableRecord
  2
CONTINUOUS
 70
0
  3
Solid line
 72
65
 73
0
 40
0.0
  0
LTYPE
  5
31
100
AcDbSymbolTableRecord
100
AcDbLinetypeTableRecord
  2
DOT
 70
0
  3
Dot . . . . . . . . . . . . . . . . . . . . . .
 72
65
 73
2
 40
6.3499999999999996
 49
0.0
 74
0
 49
-6.3499999999999996
 74
0
  0
LTYPE
  5
32
100
AcDbSymbolTableRecord
100
AcDbLinetypeTableRecord
  2
DOT2
 70
0
  3
Dot (.5x) .....................................
 72
65
 73
2
 40
3.1749999999999998
 49
0.0
 74
0
 49
-3.1749999999999998
 74
0
  0
LTYPE
  5
33
100
AcDbSymbolTableRecord
100
AcDbLinetypeTableRecord
  2
DOTX2
 70
0
  3
Dot (2x) .  .  .  .  .  .  .  .  .  .  .  .  .
 72
65
 73
2
 40
12.6999999999999993
 49
0.0
 74
0
 49
-12.6999999999999993
 74
0
  0
LTYPE
  5
34
100
AcDbSymbolTableRecord
100
AcDbLinetypeTableRecord
  2
DASHED
 70
0
  3
Dashed __ __ __ __ __ __ __ __ __ __ __ __ __ _
 72
65
 73
2
 40
19.0500000000000007
 49
12.6999999999999993
 74
0
 49
-6.3499999999999996
 74
0
  0
LTYPE
  5
35
100
AcDbSymbolTableRecord
100
AcDbLinetypeTableRecord
  2
DASHED2
 70
0
  3
Dashed (.5x) _ _ _ _ _ _ _ _ _ _ _ _ _ _ _ _ _
 72
65
 73
2
 40
9.5250000000000004
 49
6.3499999999999996
 74
0
 49
-3.1749999999999998
 74
0
  0
LTYPE
  5
36
100
AcDbSymbolTableRecord
100
AcDbLinetypeTableRecord
  2
DASHEDX2
 70
0
  3
Dashed (2x) ____  ____  ____  ____  ____  ___
 72
65
 73
2
 40
38.1000000000000014
 49
25.3999999999999986
 74
0
 49
-12.6999999999999993
 74
0
  0
LTYPE
  5
37
100
AcDbSymbolTableRecord
100
AcDbLinetypeTableRecord
  2
DASHDOT
 70
0
  3
Dash dot __ . __ . __ . __ . __ . __ . __ . __
 72
65
 73
4
 40
25.3999999999999986
 49
12.6999999999999993
 74
0
 49
-6.3499999999999996
 74
0
 49
0.0
 74
0
 49
-6.3499999999999996
 74
0
  0
LTYPE
  5
38
100
AcDbSymbolTableRecord
100
AcDbLinetypeTableRecord
  2
DASHDOT2
 70
0
  3
Dash dot (.5x) _._._._._._._._._._._._._._._.
 72
65
 73
4
 40
12.6999999999999993
 49
6.3499999999999996
 74
0
 49
-3.1749999999999998
 74
0
 49
0.0
 74
0
 49
-3.1749999999999998
 74
0
  0
LTYPE
  5
39
100
AcDbSymbolTableRecord
100
AcDbLinetypeTableRecord
  2
DASHDOTX2
 70
0
  3
Dash dot (2x) ____  .  ____  .  ____  .  ___
 72
65
 73
4
 40
50.7999999999999972
 49
25.3999999999999986
 74
0
 49
-12.6999999999999993
 74
0
 49
0.0
 74
0
 49
-12.6999999999999993
 74
0
  0
LTYPE
  5
3A
100
AcDbSymbolTableRecord
100
AcDbLinetypeTableRecord
  2
DIVIDE
 70
0
  3
Divide ____ . . ____ . . ____ . . ____ . . ____
 72
65
 73
6
 40
31.75
 49
12.6999999999999993
 74
0
 49
-6.3499999999999996
 74
0
 49
0.0
 74
0
 49
-6.3499999999999996
 74
0
 49
0.0
 74
0
 49
-6.3499999999999996
 74
0
  0
LTYPE
  5
3B
100
AcDbSymbolTableRecord
100
AcDbLinetypeTableRecord
  2
DIVIDE2
 70
0
  3
Divide (.5x) __..__..__..__..__..__..__..__.._
 72
65
 73
6
 40
15.875
 49
6.3499999999999996
 74
0
 49
-3.1749999999999998
 74
0
 49
0.0
 74
0
 49
-3.1749999999999998
 74
0
 49
0.0
 74
0
 49
-3.1749999999999998
 74
0
  0
LTYPE
  5
3C
100
AcDbSymbolTableRecord
100
AcDbLinetypeTableRecord
  2
DIVIDEX2
 70
0
  3
Divide (2x) ________  .  .  ________  .  .  _
 72
65
 73
6
 40
63.5
 49
25.3999999999999986
 74
0
 49
-12.6999999999999993
 74
0
 49
0.0
 74
0
 49
-12.6999999999999993
 74
0
 49
0.0
 74
0
 49
-12.6999999999999993
 74
0
  0
LTYPE
  5
3D
100
AcDbSymbolTableRecord
100
AcDbLinetypeTableRecord
  2
CENTER
 70
0
  3
Center ____ _ ____ _ ____ _ ____ _ ____ _ ____
 72
65
 73
4
 40
50.7999999999999972
 49
31.75
 74
0
 49
-6.3499999999999996
 74
0
 49
6.3499999999999996
 74
0
 49
-6.3499999999999996
 74
0
  0
LTYPE
  5
3E
100
AcDbSymbolTableRecord
100
AcDbLinetypeTableRecord
  2
CENTER2
 70
0
  3
Center (.5x) ___ _ ___ _ ___ _ ___ _ ___ _ ___
 72
65
 73
4
 40
28.5749999999999993
 49
19.0500000000000007
 74
0
 49
-3.1749999999999998
 74
0
 49
3.1749999999999998
 74
0
 49
-3.1749999999999998
 74
0
  0
LTYPE
  5
3F
100
AcDbSymbolTableRecord
100
AcDbLinetypeTableRecord
  2
CENTERX2
 70
0
  3
Center (2x) ________  __  ________  __  _____
 72
65
 73
4
 40
101.5999999999999943
 49
63.5
 74
0
 49
-12.6999999999999993
 74
0
 49
12.6999999999999993
 74
0
 49
-12.6999999999999993
 74
0
  0
LTYPE
  5
40
100
AcDbSymbolTableRecord
100
AcDbLinetypeTableRecord
  2
BORDER
 70
0
  3
Border __ __ . __ __ . __ __ . __ __ . __ __ .
 72
65
 73
6
 40
44.4500000000000028
 49
12.6999999999999993
 74
0
 49
-6.3499999999999996
 74
0
 49
12.6999999999999993
 74
0
 49
-6.3499999999999996
 74
0
 49
0.0
 74
0
 49
-6.3499999999999996
 74
0
  0
LTYPE
  5
41
100
AcDbSymbolTableRecord
100
AcDbLinetypeTableRecord
  2
BORDER2
 70
0
  3
Border (.5x) __.__.__.__.__.__.__.__.__.__.__.
 72
65
 73
6
 40
22.2250000000000014
 49
6.3499999999999996
 74
0
 49
-3.1749999999999998
 74
0
 49
6.3499999999999996
 74
0
 49
-3.1749999999999998
 74
0
 49
0.0
 74
0
 49
-3.1749999999999998
 74
0
  0
LTYPE
  5
42
100
AcDbSymbolTableRecord
100
AcDbLinetypeTableRecord
  2
BORDERX2
 70
0
  3
Border (2x) ____  ____  .  ____  ____  .  ___
 72
65
 73
6
 40
88.9000000000000057
 49
25.3999999999999986
 74
0
 49
-12.6999999999999993
 74
0
 49
25.3999999999999986
 74
0
 49
-12.6999999999999993
 74
0
 49
0.0
 74
0
 49
-12.6999999999999993
 74
0
  0
ENDTAB
  0
TABLE
  2
LAYER
  5
2
100
AcDbSymbolTable
 70
8
  0
LAYER
  5
10
100
AcDbSymbolTableRecord
100
AcDbLayerTableRecord
  2
0
 70
0
 62
7
  6
CONTINUOUS
390
F
  0
LAYER
  5
43
100
AcDbSymbolTableRecord
100
AcDbLayerTableRecord
  2
OUTLINE
 70
0
 62
2
  6
CONTINUOUS
390
F
  0
LAYER
  5
44
100
AcDbSymbolTableRecord
100
AcDbLayerTableRecord
  2
AXIS
 70
1
 62
7
  6
DASHDOT
390
F
  0
LAYER
  5
45
100
AcDbSymbolTableRecord
100
AcDbLayerTableRecord
  2
DIMENSION
 70
0
 62
7
  6
CONTINUOUS
390
F
  0
LAYER
  5
46
100
AcDbSymbolTableRecord
100
AcDbLayerTableRecord
  2
HATCH
 70
0
 62
7
  6
CONTINUOUS
390
F
  0
LAYER
  5
47
100
AcDbSymbolTableRecord
100
AcDbLayerTableRecord
  2
HELP
 70
0
 62
1
  6
DOT
390
F
  0
LAYER
  5
48
100
AcDbSymbolTableRecord
100
AcDbLayerTableRecord
  2
fibreneutre
 70
0
 62
5
  6
CONTINUOUS
370
35
390
F
  0
LAYER
  5
49
100
AcDbSymbolTableRecord
100
AcDbLayerTableRecord
  2
Gabarit
 70
0
 62
5
  6
CONTINUOUS
370
0
390
F
  0
ENDTAB
  0
TABLE
  2
STYLE
  5
3
100
AcDbSymbolTable
 70
1
  0
STYLE
  5
11
100
AcDbSymbolTableRecord
100
AcDbTextStyleTableRecord
  2
Standard
 70
0
 40
0.0
 41
0.75
 50
0.0
 71
0
 42
2.5
  3
txt
  4

  0
ENDTAB
  0
TABLE
  2
VIEW
  5
6
100
AcDbSymbolTable
 70
0
  0
ENDTAB
  0
TABLE
  2
UCS
  5
7
100
AcDbSymbolTable
 70
0
  0
ENDTAB
  0
TABLE
  2
APPID
  5
9
100
AcDbSymbolTable
 70
1
  0
APPID
  5
12
100
AcDbSymbolTableRecord
100
AcDbRegAppTableRecord
  2
ACAD
 70
0
  0
ENDTAB
  0
TABLE
  2
DIMSTYLE
  5
A
100
AcDbSymbolTable
 70
1
100
AcDbDimStyleTable
 71
0
  0
DIMSTYLE
105
27
100
AcDbSymbolTableRecord
100
AcDbDimStyleTableRecord
  2
Standard
 41
2.5
 42
0.625
 43
3.75
 44
1.25
 70
0
 73
0
 74
0
 77
1
 78
8
140
2.5
141
2.5
143
0.03937007874016
147
0.625
171
3
172
1
271
2
272
2
274
3
278
44
283
0
284
8
340
11
  0
ENDTAB
  0
TABLE
  2
BLOCK_RECORD
  5
1
100
AcDbSymbolTable
 70
1
  0
BLOCK_RECORD
  5
1F
100
AcDbSymbolTableRecord
100
AcDbBlockTableRecord
  2
*Model_Space
340
22
  0
BLOCK_RECORD
  5
1B
100
AcDbSymbolTableRecord
100
AcDbBlockTableRecord
  2
*Paper_Space
340
1E
  0
BLOCK_RECORD
  5
23
100
AcDbSymbolTableRecord
100
AcDbBlockTableRecord
  2
*Paper_Space0
340
26
  0
BLOCK_RECORD
  5
4A
100
AcDbSymbolTableRecord
100
AcDbBlockTableRecord
  2
*D0
340
0
  0
BLOCK_RECORD
  5
4B
100
AcDbSymbolTableRecord
100
AcDbBlockTableRecord
  2
*D1
340
0
  0
BLOCK_RECORD
  5
4C
100
AcDbSymbolTableRecord
100
AcDbBlockTableRecord
  2
*D2
340
0
  0
BLOCK_RECORD
  5
4D
100
AcDbSymbolTableRecord
100
AcDbBlockTableRecord
  2
*D3
340
0
  0
BLOCK_RECORD
  5
4E
100
AcDbSymbolTableRecord
100
AcDbBlockTableRecord
  2
*D4
340
0
  0
ENDTAB
  0
ENDSEC
  0
SECTION
  2
BLOCKS
  0
BLOCK
  5
20
100
AcDbEntity
  8
0
100
AcDbBlockBegin
  2
*Model_Space
 70
0
 10
0.0
 20
0.0
 30
0.0
  3
*Model_Space
  1

  0
ENDBLK
  5
21
100
AcDbEntity
  8
0
100
AcDbBlockEnd
  0
BLOCK
  5
1C
100
AcDbEntity
 67
1
  8
0
100
AcDbBlockBegin
  2
*Paper_Space
 70
0
 10
0.0
 20
0.0
 30
0.0
  3
*Paper_Space
  1

  0
ENDBLK
  5
1D
100
AcDbEntity
 67
1
  8
0
100
AcDbBlockEnd
  0
BLOCK
  5
24
100
AcDbEntity
  8
0
100
AcDbBlockBegin
  2
*Paper_Space0
 70
0
 10
0.0
 20
0.0
 30
0.0
  3
*Paper_Space0
  1

  0
ENDBLK
  5
25
100
AcDbEntity
  8
0
100
AcDbBlockEnd
  0
BLOCK
  5
4F
100
AcDbEntity
  8
0
100
AcDbBlockBegin
  2
*D0
 70
0
 10
0.0
 20
0.0
 30
0.0
  3
*D0
  1

  0
LINE
  5
50
100
AcDbEntity
100
AcDbLine
  8
OUTLINE
 62
1
370
-1
  6
ByLayer
 10
-2010.2281359999999495
 20
nan
 30
0.0
 11
-2010.2281359999999495
 21
nan
 31
0.0
  0
LINE
  5
51
100
AcDbEntity
100
AcDbLine
  8
OUTLINE
 62
1
370
-1
  6
ByLayer
 10
-1977.7281900000000405
 20
nan
 30
0.0
 11
-1977.7281900000000405
 21
nan
 31
0.0
  0
LINE
  5
52
100
AcDbEntity
100
AcDbLine
  8
OUTLINE
 62
1
370
-1
  6
ByLayer
 10
-2010.2281359999999495
 20
nan
 30
0.0
 11
-1977.7281900000000405
 21
nan
 31
0.0
  0
LINE
  5
53
100
AcDbEntity
100
AcDbLine
  8
OUTLINE
 62
1
370
-1
  6
ByLayer
 10
nan
 20
nan
 30
0.0
 11
-2010.2281359999999495
 21
nan
 31
0.0
  0
LINE
  5
54
100
AcDbEntity
100
AcDbLine
  8
OUTLINE
 62
1
370
-1
  6
ByLayer
 10
nan
 20
nan
 30
0.0
 11
nan
 21
nan
 31
0.0
  0
LINE
  5
55
100
AcDbEntity
100
AcDbLine
  8
OUTLINE
 62
1
370
-1
  6
ByLayer
 10
nan
 20
nan
 30
0.0
 11
nan
 21
nan
 31
0.0
  0
LINE
  5
56
100
AcDbEntity
100
AcDbLine
  8
OUTLINE
 62
1
370
-1
  6
ByLayer
 10
nan
 20
nan
 30
0.0
 11
-1977.7281900000000405
 21
nan
 31
0.0
  0
LINE
  5
57
100
AcDbEntity
100
AcDbLine
  8
OUTLINE
 62
1
370
-1
  6
ByLayer
 10
nan
 20
nan
 30
0.0
 11
nan
 21
nan
 31
0.0
  0
LINE
  5
58
100
AcDbEntity
100
AcDbLine
  8
OUTLINE
 62
1
370
-1
  6
ByLayer
 10
nan
 20
nan
 30
0.0
 11
nan
 21
nan
 31
0.0
  0
MTEXT
  5
59
100
AcDbEntity
100
AcDbMText
  8
OUTLINE
 62
1
370
-1
  6
ByLayer
 10
nan
 20
nan
 30
0.0
 40
nan
 41
100.0
 71
7
 72
2
  1
32.4999
  7
STANDARD
 50
0.0
 73
1
 44
1.0
  0
MTEXT
  5
5A
100
AcDbEntity
100
AcDbMText
  8
OUTLINE
 62
1
370
-1
  6
ByLayer
 10
nan
 20
nan
 30
0.0
 40
nan
 41
100.0
 71
7
 72
2
  1
0.5
  7
STANDARD
 50
0.0
 73
1
 44
1.0
  0
MTEXT
  5
5B
100
AcDbEntity
100
AcDbMText
  8
OUTLINE
 62
1
370
-1
  6
ByLayer
 10
nan
 20
nan
 30
0.0
 40
nan
 41
100.0
 71
7
 72
2
  1
0.5
  7
STANDARD
 50
0.0
 73
1
 44
1.0
  0
ENDBLK
  5
5C
100
AcDbEntity
  8
0
100
AcDbBlockEnd
  0
BLOCK
  5
5D
100
AcDbEntity
  8
0
100
AcDbBlockBegin
  2
*D1
 70
0
 10
0.0
 20
0.0
 30
0.0
  3
*D1
  1

  0
LINE
  5
5E
100
AcDbEntity
100
AcDbLine
  8
OUTLINE
 62
1
370
-1
  6
ByLayer
 10
-2010.2281359999999495
 20
nan
 30
0.0
 11
-2010.2281359999999495
 21
nan
 31
0.0
  0
LINE
  5
5F
100
AcDbEntity
100
AcDbLine
  8
OUTLINE
 62
1
370
-1
  6
ByLayer
 10
-1977.7281900000000405
 20
nan
 30
0.0
 11
-1977.7281900000000405
 21
nan
 31
0.0
  0
LINE
  5
60
100
AcDbEntity
100
AcDbLine
  8
OUTLINE
 62
1
370
-1
  6
ByLayer
 10
-2010.2281359999999495
 20
nan
 30
0.0
 11
-1977.7281900000000405
 21
nan
 31
0.0
  0
LINE
  5
61
100
AcDbEntity
100
AcDbLine
  8
OUTLINE
 62
1
370
-1
  6
ByLayer
 10
nan
 20
nan
 30
0.0
 11
-2010.2281359999999495
 21
nan
 31
0.0
  0
LINE
  5
62
100
AcDbEntity
100
AcDbLine
  8
OUTLINE
 62
1
370
-1
  6
ByLayer
 10
nan
 20
nan
 30
0.0
 11
nan
 21
nan
 31
0.0
  0
LINE
  5
63
100
AcDbEntity
100
AcDbLine
  8
OUTLINE
 62
1
370
-1
  6
ByLayer
 10
nan
 20
nan
 30
0.0
 11
nan
 21
nan
 31
0.0
  0
LINE
  5
64
100
AcDbEntity
100
AcDbLine
  8
OUTLINE
 62
1
370
-1
  6
ByLayer
 10
nan
 20
nan
 30
0.0
 11
-1977.7281900000000405
 21
nan
 31
0.0
  0
LINE
  5
65
100
AcDbEntity
100
AcDbLine
  8
OUTLINE
 62
1
370
-1
  6
ByLayer
 10
nan
 20
nan
 30
0.0
 11
nan
 21
nan
 31
0.0
  0
LINE
  5
66
100
AcDbEntity
100
AcDbLine
  8
OUTLINE
 62
1
370
-1
  6
ByLayer
 10
nan
 20
nan
 30
0.0
 11
nan
 21
nan
 31
0.0
  0
MTEXT
  5
67
100
AcDbEntity
100
AcDbMText
  8
OUTLINE
 62
1
370
-1
  6
ByLayer
 10
nan
 20
nan
 30
0.0
 40
nan
 41
100.0
 71
7
 72
2
  1
32.4999
  7
STANDARD
 50
0.0
 73
1
 44
1.0
  0
ENDBLK
  5
68
100
AcDbEntity
  8
0
100
AcDbBlockEnd
  0
BLOCK
  5
69
100
AcDbEntity
  8
0
100
AcDbBlockBegin
  2
*D2
 70
0
 10
0.0
 20
0.0
 30
0.0
  3
*D2
  1

  0
LINE
  5
6A
100
AcDbEntity
100
AcDbLine
  8
OUTLINE
 62
1
370
-1
  6
ByLayer
 10
-1979.9065669999999955
 20
nan
 30
0.0
 11
-1979.9065669999999955
 21
nan
 31
0.0
  0
LINE
  5
6B
100
AcDbEntity
100
AcDbLine
  8
OUTLINE
 62
1
370
-1
  6
ByLayer
 10
-1977.7281900000000405
 20
nan
 30
0.0
 11
-1977.7281900000000405
 21
nan
 31
0.0
  0
LINE
  5
6C
100
AcDbEntity
100
AcDbLine
  8
OUTLINE
 62
1
370
-1
  6
ByLayer
 10
-1979.9065669999999955
 20
nan
 30
0.0
 11
-1977.7281900000000405
 21
nan
 31
0.0
  0
LINE
  5
6D
100
AcDbEntity
100
AcDbLine
  8
OUTLINE
 62
1
370
-1
  6
ByLayer
 10
nan
 20
nan
 30
0.0
 11
-1979.9065669999999955
 21
nan
 31
0.0
  0
LINE
  5
6E
100
AcDbEntity
100
AcDbLine
  8
OUTLINE
 62
1
370
-1
  6
ByLayer
 10
nan
 20
nan
 30
0.0
 11
nan
 21
nan
 31
0.0
  0
LINE
  5
6F
100
AcDbEntity
100
AcDbLine
  8
OUTLINE
 62
1
370
-1
  6
ByLayer
 10
nan
 20
nan
 30
0.0
 11
nan
 21
nan
 31
0.0
  0
LINE
  5
70
100
AcDbEntity
100
AcDbLine
  8
OUTLINE
 62
1
370
-1
  6
ByLayer
 10
nan
 20
nan
 30
0.0
 11
-1977.7281900000000405
 21
nan
 31
0.0
  0
LINE
  5
71
100
AcDbEntity
100
AcDbLine
  8
OUTLINE
 62
1
370
-1
  6
ByLayer
 10
nan
 20
nan
 30
0.0
 11
nan
 21
nan
 31
0.0
  0
LINE
  5
72
100
AcDbEntity
100
AcDbLine
  8
OUTLINE
 62
1
370
-1
  6
ByLayer
 10
nan
 20
nan
 30
0.0
 11
nan
 21
nan
 31
0.0
  0
MTEXT
  5
73
100
AcDbEntity
100
AcDbMText
  8
OUTLINE
 62
1
370
-1
  6
ByLayer
 10
nan
 20
nan
 30
0.0
 40
nan
 41
100.0
 71
7
 72
2
  1
2.17838
  7
STANDARD
 50
0.0
 73
1
 44
1.0
  0
ENDBLK
  5
74
100
AcDbEntity
  8
0
100
AcDbBlockEnd
  0
BLOCK
  5
75
100
AcDbEntity
  8
0
100
AcDbBlockBegin
  2
*D3
 70
0
 10
0.0
 20
0.0
 30
0.0
  3
*D3
  1

  0
LINE
  5
76
100
AcDbEntity
100
AcDbLine
  8
OUTLINE
 62
1
370
-1
  6
ByLayer
 10
-2001.7276079999999183
 20
nan
 30
0.0
 11
-2001.7276079999999183
 21
nan
 31
0.0
  0
LINE
  5
77
100
AcDbEntity
100
AcDbLine
  8
OUTLINE
 62
1
370
-1
  6
ByLayer
 10
-1988.1088019999999688
 20
nan
 30
0.0
 11
-1988.1088019999999688
 21
nan
 31
0.0
  0
LINE
  5
78
100
AcDbEntity
100
AcDbLine
  8
OUTLINE
 62
1
370
-1
  6
ByLayer
 10
-2001.7276079999999183
 20
nan
 30
0.0
 11
-1988.1088019999999688
 21
nan
 31
0.0
  0
LINE
  5
79
100
AcDbEntity
100
AcDbLine
  8
OUTLINE
 62
1
370
-1
  6
ByLayer
 10
nan
 20
nan
 30
0.0
 11
-2001.7276079999999183
 21
nan
 31
0.0
  0
LINE
  5
7A
100
AcDbEntity
100
AcDbLine
  8
OUTLINE
 62
1
370
-1
  6
ByLayer
 10
nan
 20
nan
 30
0.0
 11
nan
 21
nan
 31
0.0
  0
LINE
  5
7B
100
AcDbEntity
100
AcDbLine
  8
OUTLINE
 62
1
370
-1
  6
ByLayer
 10
nan
 20
nan
 30
0.0
 11
nan
 21
nan
 31
0.0
  0
LINE
  5
7C
100
AcDbEntity
100
AcDbLine
  8
OUTLINE
 62
1
370
-1
  6
ByLayer
 10
nan
 20
nan
 30
0.0
 11
-1988.1088019999999688
 21
nan
 31
0.0
  0
LINE
  5
7D
100
AcDbEntity
100
AcDbLine
  8
OUTLINE
 62
1
370
-1
  6
ByLayer
 10
nan
 20
nan
 30
0.0
 11
nan
 21
nan
 31
0.0
  0
LINE
  5
7E
100
AcDbEntity
100
AcDbLine
  8
OUTLINE
 62
1
370
-1
  6
ByLayer
 10
nan
 20
nan
 30
0.0
 11
nan
 21
nan
 31
0.0
  0
MTEXT
  5
7F
100
AcDbEntity
100
AcDbMText
  8
OUTLINE
 62
1
370
-1
  6
ByLayer
 10
nan
 20
nan
 30
0.0
 40
nan
 41
100.0
 71
7
 72
2
  1
13.6188
  7
STANDARD
 50
0.0
 73
1
 44
1.0
  0
ENDBLK
  5
80
100
AcDbEntity
  8
0
100
AcDbBlockEnd
  0
BLOCK
  5
81
100
AcDbEntity
  8
0
100
AcDbBlockBegin
  2
*D4
 70
0
 10
0.0
 20
0.0
 30
0.0
  3
*D4
  1

  0
LINE
  5
82
100
AcDbEntity
100
AcDbLine
  8
OUTLINE
 62
1
370
-1
  6
ByLayer
 10
-2010.2281359999999495
 20
nan
 30
0.0
 11
-2010.2281359999999495
 21
nan
 31
0.0
  0
LINE
  5
83
100
AcDbEntity
100
AcDbLine
  8
OUTLINE
 62
1
370
-1
  6
ByLayer
 10
-1977.7281900000000405
 20
nan
 30
0.0
 11
-1977.7281900000000405
 21
nan
 31
0.0
  0
LINE
  5
84
100
AcDbEntity
100
AcDbLine
  8
OUTLINE
 62
1
370
-1
  6
ByLayer
 10
-2010.2281359999999495
 20
nan
 30
0.0
 11
-1977.7281900000000405
 21
nan
 31
0.0
  0
LINE
  5
85
100
AcDbEntity
100
AcDbLine
  8
OUTLINE
 62
1
370
-1
  6
ByLayer
 10
nan
 20
nan
 30
0.0
 11
-2010.2281359999999495
 21
nan
 31
0.0
  0
LINE
  5
86
100
AcDbEntity
100
AcDbLine
  8
OUTLINE
 62
1
370
-1
  6
ByLayer
 10
nan
 20
nan
 30
0.0
 11
nan
 21
nan
 31
0.0
  0
LINE
  5
87
100
AcDbEntity
100
AcDbLine
  8
OUTLINE
 62
1
370
-1
  6
ByLayer
 10
nan
 20
nan
 30
0.0
 11
nan
 21
nan
 31
0.0
  0
LINE
  5
88
100
AcDbEntity
100
AcDbLine
  8
OUTLINE
 62
1
370
-1
  6
ByLayer
 10
nan
 20
nan
 30
0.0
 11
-1977.7281900000000405
 21
nan
 31
0.0
  0
LINE
  5
89
100
AcDbEntity
100
AcDbLine
  8
OUTLINE
 62
1
370
-1
  6
ByLayer
 10
nan
 20
nan
 30
0.0
 11
nan
 21
nan
 31
0.0
  0
LINE
  5
8A
100
AcDbEntity
100
AcDbLine
  8
OUTLINE
 62
1
370
-1
  6
ByLayer
 10
nan
 20
nan
 30
0.0
 11
nan
 21
nan
 31
0.0
  0
MTEXT
  5
8B
100
AcDbEntity
100
AcDbMText
  8
OUTLINE
 62
1
370
-1
  6
ByLayer
 10
nan
 20
nan
 30
0.0
 40
nan
 41
100.0
 71
7
 72
2
  1
32.4999
  7
STANDARD
 50
0.0
 73
1
 44
1.0
  0
ENDBLK
  5
8C
100
AcDbEntity
  8
0
100
AcDbBlockEnd
  0
ENDSEC
  0
SECTION
  2
ENTITIES
  0
CIRCLE
  5
8D
100
AcDbEntity
100
AcDbCircle
  8
Gabarit
 62
256
370
-1
  6
ByLayer
 10
-1775.0
 20
849.9999995000000581
 30
0.0
 40
5.0
  0
CIRCLE
  5
8E
100
AcDbEntity
100
AcDbCircle
  8
Gabarit
 62
256
370
-1
  6
ByLayer
 10
-1775.0
 20
749.9999995000000581
 30
0.0
 40
5.0
  0
CIRCLE
  5
8F
100
AcDbEntity
100
AcDbCircle
  8
Gabarit
 62
256
370
-1
  6
ByLayer
 10
-1885.1976479999998446
 20
799.999773500000174
 30
0.0
 40
1.5
  0
ARC
  5
90
100
AcDbEntity
  8
Gabarit
 62
256
370
-1
  6
ByLayer
100
AcDbCircle
 10
-1785.8372512443438609
 20
857.180109907714268
 30
0.0
 40
3.0
100
AcDbArc
 50
278.3008509807589235
 51
326.4739414863360594
  0
ARC
  5
91
100
AcDbEntity
  8
Gabarit
 62
256
370
-1
  6
ByLayer
100
AcDbCircle
 10
-1745.3489909999998417
 20
857.0
 30
0.0
 40
3.0
100
AcDbArc
 50
0.0
 51
90.0
  0
LINE
  5
92
100
AcDbEntity
100
AcDbLine
  8
Gabarit
 62
256
370
-1
  6
ByLayer
 10
-1742.3489909999998417
 20
857.0
 30
0.0
 11
-1742.3489909999998417
 21
743.0
 31
0.0
  0
ARC
  5
93
100
AcDbEntity
  8
Gabarit
 62
256
370
-1
  6
ByLayer
100
AcDbCircle
 10
-1745.3489909999998417
 20
743.0
 30
0.0
 40
3.0
100
AcDbArc
 50
270.0
 51
0.0
  0
ARC
  5
94
100
AcDbEntity
  8
Gabarit
 62
256
370
-1
  6
ByLayer
100
AcDbCircle
 10
-1785.83725127737398
 20
742.8198891421394592
 30
0.0
 40
3.0
100
AcDbArc
 50
33.5260582500919213
 51
81.6991485517264238
  0
LINE
  5
95
100
AcDbEntity
100
AcDbLine
  8
Gabarit
 62
256
370
-1
  6
ByLayer
 10
-1774.9999998313714968
 20
739.9999995000000581
 30
0.0
 11
-1745.3489909999998417
 21
740.0
 31
0.0
  0
ARC
  5
96
100
AcDbEntity
  8
Gabarit
 62
5
370
0
  6
CONTINUOUS
100
AcDbCircle
 10
-1775.0
 20
749.9999995000000581
 30
0.0
 40
10.0
100
AcDbArc
 50
213.5260582500924329
 51
270.0000009661701483
  0
LINE
  5
97
100
AcDbEntity
100
AcDbLine
  8
Gabarit
 62
256
370
-1
  6
ByLayer
 10
-1775.0000001686282758
 20
859.9999995000000581
 30
0.0
 11
-1745.3489909999998417
 21
860.0
 31
0.0
  0
ARC
  5
98
100
AcDbEntity
  8
Gabarit
 62
5
370
0
  6
CONTINUOUS
100
AcDbCircle
 10
-1775.0
 20
849.9999995000000581
 30
0.0
 40
10.0
100
AcDbArc
 50
90.0000009661688551
 51
146.473941486335093
  0
LINE
  5
99
100
AcDbEntity
100
AcDbLine
  8
Gabarit
 62
256
370
-1
  6
ByLayer
 10
-1785.40413855084239
 20
854.2115389729499384
 30
0.0
 11
-1897.4331126935014709
 21
837.8665797964952162
 31
0.0
  0
ARC
  5
9A
100
AcDbEntity
  8
Gabarit
 62
256
370
-1
  6
ByLayer
100
AcDbCircle
 10
-1897.0
 20
834.8980088617308866
 30
0.0
 40
3.0
100
AcDbArc
 50
98.3008509807589661
 51
180.0
  0
LINE
  5
9B
100
AcDbEntity
100
AcDbLine
  8
Gabarit
 62
256
370
-1
  6
ByLayer
 10
-1900.0
 20
834.8980088617308866
 30
0.0
 11
-1900.0
 21
765.1019911168787075
 31
0.0
  0
LINE
  5
9C
100
AcDbEntity
100
AcDbLine
  8
Gabarit
 62
256
370
-1
  6
ByLayer
 10
-1897.4331127177240433
 20
762.1334201856483332
 30
0.0
 11
-1785.4041385596499367
 21
745.7884600733698335
 31
0.0
  0
ARC
  5
9D
100
AcDbEntity
  8
Gabarit
 62
256
370
-1
  6
ByLayer
100
AcDbCircle
 10
-1897.0
 20
765.1019911168787075
 30
0.0
 40
3.0
100
AcDbArc
 50
180.0
 51
261.6991485517264096
  0
LINE
  5
9E
100
AcDbEntity
100
AcDbLine
  8
Gabarit
 62
256
370
-1
  6
ByLayer
 10
-1903.0
 20
774.9999999893047971
 30
0.0
 11
-1739.3489909999998417
 21
775.0
 31
0.0
  0
LINE
  5
9F
100
AcDbEntity
100
AcDbLine
  8
Gabarit
 62
256
370
-1
  6
ByLayer
 10
-1903.0
 20
771.9999999893047971
 30
0.0
 11
-1739.3489909999998417
 21
772.0
 31
0.0
  0
LINE
  5
A0
100
AcDbEntity
100
AcDbLine
  8
Gabarit
 62
256
370
-1
  6
ByLayer
 10
-1903.0
 20
824.9999999893047971
 30
0.0
 11
-1739.3489909999998417
 21
825.0
 31
0.0
  0
LINE
  5
A1
100
AcDbEntity
100
AcDbLine
  8
Gabarit
 62
256
370
-1
  6
ByLayer
 10
-1903.0
 20
827.9999999893047971
 30
0.0
 11
-1739.3489909999998417
 21
828.0
 31
0.0
  0
LINE
  5
A2
100
AcDbEntity
100
AcDbLine
  8
Gabarit
 62
256
370
-1
  6
ByLayer
 10
-1903.0
 20
827.9999999893047971
 30
0.0
 11
-1903.0
 21
824.9999999893047971
 31
0.0
  0
LINE
  5
A3
100
AcDbEntity
100
AcDbLine
  8
Gabarit
 62
256
370
-1
  6
ByLayer
 10
-1903.0
 20
774.9999999893047971
 30
0.0
 11
-1903.0
 21
771.9999999893047971
 31
0.0
  0
LINE
  5
A4
100
AcDbEntity
100
AcDbLine
  8
Gabarit
 62
256
370
-1
  6
ByLayer
 10
-1739.3489909999998417
 20
772.0
 30
0.0
 11
-1739.3489909999998417
 21
775.0
 31
0.0
  0
LINE
  5
A5
100
AcDbEntity
100
AcDbLine
  8
Gabarit
 62
256
370
-1
  6
ByLayer
 10
-1739.3489909999998417
 20
825.0
 30
0.0
 11
-1739.3489909999998417
 21
828.0
 31
0.0
  0
LINE
  5
A6
100
AcDbEntity
100
AcDbLine
  8
Gabarit
 62
256
370
-1
  6
ByLayer
 10
-1902.9544229999999061
 20
920.5209449999999833
 30
0.0
 11
-1916.7417319999999563
 21
922.9520190000000639
 31
0.0
  0
LINE
  5
A7
100
AcDbEntity
100
AcDbLine
  8
Gabarit
 62
256
370
-1
  6
ByLayer
 10
-1919.6961549999998624
 20
923.4729640000000472
 30
0.0
 11
-1916.7417319999999563
 21
922.9520190000000639
 31
0.0
  0
ARC
  5
A8
100
AcDbEntity
  8
Gabarit
 62
256
370
-1
  6
ByLayer
100
AcDbCircle
 10
-1919.2648039999999128
 20
925.935470000000123
 30
0.0
 40
2.5
100
AcDbArc
 50
235.6287829999999985
 51
260.0644449999999779
  0
LINE
  5
A9
100
AcDbEntity
100
AcDbLine
  8
Gabarit
 62
256
370
-1
  6
ByLayer
 10
-1920.6761849999998049
 20
923.8719770000000153
 30
0.0
 11
-1929.8530049999999392
 21
930.1487070000000585
 31
0.0
  0
ARC
  5
AA
100
AcDbEntity
  8
Gabarit
 62
256
370
-1
  6
ByLayer
100
AcDbCircle
 10
-1928.4416239999998197
 20
932.2121999999999389
 30
0.0
 40
2.5
100
AcDbArc
 50
164.3204049999999938
 51
235.6287829999999985
  0
LINE
  5
AB
100
AcDbEntity
100
AcDbLine
  8
Gabarit
 62
256
370
-1
  6
ByLayer
 10
-1742.4474719999998342
 20
925.017364999999927
 30
0.0
 11
-1898.9000000000000909
 21
925.017364999999927
 31
0.0
  0
ARC
  5
AC
100
AcDbEntity
  8
Gabarit
 62
256
370
-1
  6
ByLayer
100
AcDbCircle
 10
-1898.9000000000000909
 20
923.9173649999999043
 30
0.0
 40
1.1000000000000001
100
AcDbArc
 50
90.0
 51
180.0
  0
LINE
  5
AD
100
AcDbEntity
100
AcDbLine
  8
Gabarit
 62
256
370
-1
  6
ByLayer
 10
-1901.2910131777457536
 20
920.2276406797133177
 30
0.0
 11
-1902.9544229999999061
 21
920.5209449999999833
 31
0.0
  0
LINE
  5
AE
100
AcDbEntity
100
AcDbLine
  8
Gabarit
 62
256
370
-1
  6
ByLayer
 10
-1900.0
 20
921.3109291758801191
 30
0.0
 11
-1900.0
 21
923.9173649999999043
 31
0.0
  0
ARC
  5
AF
100
AcDbEntity
  8
Gabarit
 62
256
370
-1
  6
ByLayer
100
AcDbCircle
 10
-1901.0999999999999091
 20
921.3109291758801191
 30
0.0
 40
1.1000000000000001
100
AcDbArc
 50
259.9999903573967686
 51
0.0
  0
LINE
  5
B0
100
AcDbEntity
100
AcDbLine
  8
Gabarit
 62
256
370
-1
  6
ByLayer
 10
-1925.2512920910251069
 20
952.8281377605659372
 30
0.0
 11
-1930.8485942695301674
 21
932.8878440049662686
 31
0.0
  0
ARC
  5
B1
100
AcDbEntity
  8
Gabarit
 62
256
370
-1
  6
ByLayer
100
AcDbCircle
 10
-1922.3629279293024865
 20
952.017364999999927
 30
0.0
 40
3.0
100
AcDbArc
 50
90.0
 51
164.3204046600356776
  0
LINE
  5
B2
100
AcDbEntity
100
AcDbLine
  8
Gabarit
 62
256
370
-1
  6
ByLayer
 10
-1745.4474719999998342
 20
955.017364999999927
 30
0.0
 11
-1922.3629279293024865
 21
955.017364999999927
 31
0.0
  0
LINE
  5
B3
100
AcDbEntity
100
AcDbLine
  8
Gabarit
 62
256
370
-1
  6
ByLayer
 10
-1742.4474719999998342
 20
952.017364999999927
 30
0.0
 11
-1742.4474719999998342
 21
925.017364999999927
 31
0.0
  0
ARC
  5
B4
100
AcDbEntity
  8
Gabarit
 62
256
370
-1
  6
ByLayer
100
AcDbCircle
 10
-1745.4474719999998342
 20
952.017364999999927
 30
0.0
 40
3.0
100
AcDbArc
 50
0.0
 51
90.0
  0
LINE
  5
B5
100
AcDbEntity
100
AcDbLine
  8
Gabarit
 62
256
370
-1
  6
ByLayer
 10
-1924.0
 20
944.0
 30
0.0
 11
-1900.0
 21
944.0
 31
0.0
  0
LINE
  5
B6
100
AcDbEntity
100
AcDbLine
  8
Gabarit
 62
256
370
-1
  6
ByLayer
 10
-1900.0
 20
944.0
 30
0.0
 11
-1900.0
 21
941.0
 31
0.0
  0
LINE
  5
B7
100
AcDbEntity
100
AcDbLine
  8
Gabarit
 62
256
370
-1
  6
ByLayer
 10
-1900.0
 20
941.0
 30
0.0
 11
-1924.0
 21
941.0
 31
0.0
  0
LINE
  5
B8
100
AcDbEntity
100
AcDbLine
  8
Gabarit
 62
256
370
-1
  6
ByLayer
 10
-1924.0
 20
941.0
 30
0.0
 11
-1924.0
 21
944.0
 31
0.0
  0
LINE
  5
B9
100
AcDbEntity
100
AcDbLine
  8
Gabarit
 62
256
370
-1
  6
ByLayer
 10
-1893.0
 20
949.017364999999927
 30
0.0
 11
-1896.0
 21
949.017364999999927
 31
0.0
  0
LINE
  5
BA
100
AcDbEntity
100
AcDbLine
  8
Gabarit
 62
256
370
-1
  6
ByLayer
 10
-1823.0
 20
949.017364999999927
 30
0.0
 11
-1826.0
 21
949.017364999999927
 31
0.0
  0
LINE
  5
BB
100
AcDbEntity
100
AcDbLine
  8
Gabarit
 62
256
370
-1
  6
ByLayer
 10
-1753.0
 20
949.017364999999927
 30
0.0
 11
-1756.0
 21
949.017364999999927
 31
0.0
  0
LINE
  5
BC
100
AcDbEntity
100
AcDbLine
  8
Gabarit
 62
256
370
-1
  6
ByLayer
 10
-1753.0
 20
949.017364999999927
 30
0.0
 11
-1753.0
 21
923.0
 31
0.0
  0
LINE
  5
BD
100
AcDbEntity
100
AcDbLine
  8
Gabarit
 62
256
370
-1
  6
ByLayer
 10
-1756.0
 20
949.017364999999927
 30
0.0
 11
-1756.0
 21
923.0
 31
0.0
  0
LINE
  5
BE
100
AcDbEntity
100
AcDbLine
  8
Gabarit
 62
256
370
-1
  6
ByLayer
 10
-1823.0
 20
949.017364999999927
 30
0.0
 11
-1823.0
 21
923.0
 31
0.0
  0
LINE
  5
BF
100
AcDbEntity
100
AcDbLine
  8
Gabarit
 62
256
370
-1
  6
ByLayer
 10
-1826.0
 20
949.017364999999927
 30
0.0
 11
-1826.0
 21
923.0
 31
0.0
  0
LINE
  5
C0
100
AcDbEntity
100
AcDbLine
  8
Gabarit
 62
256
370
-1
  6
ByLayer
 10
-1896.0
 20
949.017364999999927
 30
0.0
 11
-1896.0
 21
923.0
 31
0.0
  0
LINE
  5
C1
100
AcDbEntity
100
AcDbLine
  8
Gabarit
 62
256
370
-1
  6
ByLayer
 10
-1893.0
 20
949.017364999999927
 30
0.0
 11
-1893.0
 21
923.0
 31
0.0
  0
LINE
  5
C2
100
AcDbEntity
100
AcDbLine
  8
Gabarit
 62
256
370
-1
  6
ByLayer
 10
-1896.0
 20
923.0
 30
0.0
 11
-1893.0
 21
923.0
 31
0.0
  0
LINE
  5
C3
100
AcDbEntity
100
AcDbLine
  8
Gabarit
 62
256
370
-1
  6
ByLayer
 10
-1826.0
 20
923.0
 30
0.0
 11
-1823.0
 21
923.0
 31
0.0
  0
LINE
  5
C4
100
AcDbEntity
100
AcDbLine
  8
Gabarit
 62
256
370
-1
  6
ByLayer
 10
-1756.0
 20
923.0
 30
0.0
 11
-1753.0
 21
923.0
 31
0.0
  0
LINE
  5
C5
100
AcDbEntity
100
AcDbLine
  8
Gabarit
 62
256
370
-1
  6
ByLayer
 10
-1902.9544229999999061
 20
999.4790550000000167
 30
0.0
 11
-1916.7417319999999563
 21
997.0479809999999361
 31
0.0
  0
LINE
  5
C6
100
AcDbEntity
100
AcDbLine
  8
Gabarit
 62
256
370
-1
  6
ByLayer
 10
-1919.6961549999998624
 20
996.5270359999999528
 30
0.0
 11
-1916.7417319999999563
 21
997.0479809999999361
 31
0.0
  0
ARC
  5
C7
100
AcDbEntity
  8
Gabarit
 62
256
370
-1
  6
ByLayer
100
AcDbCircle
 10
-1919.2648039999999128
 20
994.064529999999877
 30
0.0
 40
2.5
100
AcDbArc
 50
99.9355550000000079
 51
124.3712170000000725
  0
LINE
  5
C8
100
AcDbEntity
100
AcDbLine
  8
Gabarit
 62
256
370
-1
  6
ByLayer
 10
-1920.6761849999998049
 20
996.1280229999999847
 30
0.0
 11
-1929.8530049999999392
 21
989.8512929999999415
 31
0.0
  0
ARC
  5
C9
100
AcDbEntity
  8
Gabarit
 62
256
370
-1
  6
ByLayer
100
AcDbCircle
 10
-1928.4416239999998197
 20
987.7878000000000611
 30
0.0
 40
2.5
100
AcDbArc
 50
124.3712170000000725
 51
195.6795950000000062
  0
LINE
  5
CA
100
AcDbEntity
100
AcDbLine
  8
Gabarit
 62
256
370
-1
  6
ByLayer
 10
-1742.4474719999998342
 20
994.982635000000073
 30
0.0
 11
-1898.9000000000000909
 21
994.982635000000073
 31
0.0
  0
ARC
  5
CB
100
AcDbEntity
  8
Gabarit
 62
256
370
-1
  6
ByLayer
100
AcDbCircle
 10
-1898.9000000000000909
 20
996.0826350000000957
 30
0.0
 40
1.1000000000000001
100
AcDbArc
 50
180.0
 51
270.0
  0
LINE
  5
CC
100
AcDbEntity
100
AcDbLine
  8
Gabarit
 62
256
370
-1
  6
ByLayer
 10
-1901.2910131777457536
 20
999.7723593202866823
 30
0.0
 11
-1902.9544229999999061
 21
999.4790550000000167
 31
0.0
  0
LINE
  5
CD
100
AcDbEntity
100
AcDbLine
  8
Gabarit
 62
256
370
-1
  6
ByLayer
 10
-1900.0
 20
998.6890708241198809
 30
0.0
 11
-1900.0
 21
996.0826350000000957
 31
0.0
  0
ARC
  5
CE
100
AcDbEntity
  8
Gabarit
 62
256
370
-1
  6
ByLayer
100
AcDbCircle
 10
-1901.0999999999999091
 20
998.6890708241198809
 30
0.0
 40
1.1000000000000001
100
AcDbArc
 50
0.0
 51
100.0000096426032457
  0
LINE
  5
CF
100
AcDbEntity
100
AcDbLine
  8
Gabarit
 62
256
370
-1
  6
ByLayer
 10
-1925.2512920910251069
 20
967.1718622394340628
 30
0.0
 11
-1930.8485942695301674
 21
987.1121559950337314
 31
0.0
  0
ARC
  5
D0
100
AcDbEntity
  8
Gabarit
 62
256
370
-1
  6
ByLayer
100
AcDbCircle
 10
-1922.3629279293024865
 20
967.982635000000073
 30
0.0
 40
3.0
100
AcDbArc
 50
195.6795953399643224
 51
270.0
  0
LINE
  5
D1
100
AcDbEntity
100
AcDbLine
  8
Gabarit
 62
256
370
-1
  6
ByLayer
 10
-1745.4474719999998342
 20
964.9826350000005277
 30
0.0
 11
-1922.3629279293024865
 21
964.982635000000073
 31
0.0
  0
LINE
  5
D2
100
AcDbEntity
100
AcDbLine
  8
Gabarit
 62
256
370
-1
  6
ByLayer
 10
-1742.4474719999998342
 20
967.9826350000003004
 30
0.0
 11
-1742.4474719999998342
 21
994.982635000000073
 31
0.0
  0
ARC
  5
D3
100
AcDbEntity
  8
Gabarit
 62
256
370
-1
  6
ByLayer
100
AcDbCircle
 10
-1745.4474719999998342
 20
967.9826349999999593
 30
0.0
 40
3.0
100
AcDbArc
 50
270.0
 51
0.0
  0
LINE
  5
D4
100
AcDbEntity
100
AcDbLine
  8
Gabarit
 62
256
370
-1
  6
ByLayer
 10
-1924.0
 20
976.0
 30
0.0
 11
-1900.0
 21
976.0
 31
0.0
  0
LINE
  5
D5
100
AcDbEntity
100
AcDbLine
  8
Gabarit
 62
256
370
-1
  6
ByLayer
 10
-1900.0
 20
976.0
 30
0.0
 11
-1900.0
 21
979.0
 31
0.0
  0
LINE
  5
D6
100
AcDbEntity
100
AcDbLine
  8
Gabarit
 62
256
370
-1
  6
ByLayer
 10
-1900.0
 20
979.0
 30
0.0
 11
-1924.0
 21
979.0
 31
0.0
  0
LINE
  5
D7
100
AcDbEntity
100
AcDbLine
  8
Gabarit
 62
256
370
-1
  6
ByLayer
 10
-1924.0
 20
979.0
 30
0.0
 11
-1924.0
 21
976.0
 31
0.0
  0
LINE
  5
D8
100
AcDbEntity
100
AcDbLine
  8
Gabarit
 62
256
370
-1
  6
ByLayer
 10
-1893.0
 20
970.982635000000073
 30
0.0
 11
-1896.0
 21
970.982635000000073
 31
0.0
  0
LINE
  5
D9
100
AcDbEntity
100
AcDbLine
  8
Gabarit
 62
256
370
-1
  6
ByLayer
 10
-1823.0
 20
970.982635000000073
 30
0.0
 11
-1826.0
 21
970.982635000000073
 31
0.0
  0
LINE
  5
DA
100
AcDbEntity
100
AcDbLine
  8
Gabarit
 62
256
370
-1
  6
ByLayer
 10
-1753.0
 20
970.982635000000073
 30
0.0
 11
-1756.0
 21
970.982635000000073
 31
0.0
  0
LINE
  5
DB
100
AcDbEntity
100
AcDbLine
  8
Gabarit
 62
256
370
-1
  6
ByLayer
 10
-1753.0
 20
970.982635000000073
 30
0.0
 11
-1753.0
 21
997.0
 31
0.0
  0
LINE
  5
DC
100
AcDbEntity
100
AcDbLine
  8
Gabarit
 62
256
370
-1
  6
ByLayer
 10
-1756.0
 20
970.982635000000073
 30
0.0
 11
-1756.0
 21
997.0000000000001137
 31
0.0
  0
LINE
  5
DD
100
AcDbEntity
100
AcDbLine
  8
Gabarit
 62
256
370
-1
  6
ByLayer
 10
-1823.0
 20
970.982635000000073
 30
0.0
 11
-1823.0
 21
997.0
 31
0.0
  0
LINE
  5
DE
100
AcDbEntity
100
AcDbLine
  8
Gabarit
 62
256
370
-1
  6
ByLayer
 10
-1826.0
 20
970.982635000000073
 30
0.0
 11
-1826.0
 21
997.0
 31
0.0
  0
LINE
  5
DF
100
AcDbEntity
100
AcDbLine
  8
Gabarit
 62
256
370
-1
  6
ByLayer
 10
-1896.0
 20
970.982635000000073
 30
0.0
 11
-1896.0
 21
997.0
 31
0.0
  0
LINE
  5
E0
100
AcDbEntity
100
AcDbLine
  8
Gabarit
 62
256
370
-1
  6
ByLayer
 10
-1893.0
 20
970.982635000000073
 30
0.0
 11
-1893.0
 21
997.0
 31
0.0
  0
LINE
  5
E1
100
AcDbEntity
100
AcDbLine
  8
Gabarit
 62
256
370
-1
  6
ByLayer
 10
-1896.0
 20
997.0
 30
0.0
 11
-1893.0
 21
997.0
 31
0.0
  0
LINE
  5
E2
100
AcDbEntity
100
AcDbLine
  8
Gabarit
 62
256
370
-1
  6
ByLayer
 10
-1826.0
 20
997.0
 30
0.0
 11
-1823.0
 21
997.0
 31
0.0
  0
LINE
  5
E3
100
AcDbEntity
100
AcDbLine
  8
Gabarit
 62
256
370
-1
  6
ByLayer
 10
-1756.0
 20
997.0000000000001137
 30
0.0
 11
-1753.0
 21
997.0
 31
0.0
  0
LINE
  5
E4
100
AcDbEntity
100
AcDbLine
  8
Gabarit
 62
256
370
-1
  6
ByLayer
 10
-1890.0
 20
1000.0
 30
0.0
 11
-1890.0
 21
1020.0
 31
0.0
  0
LINE
  5
E5
100
AcDbEntity
100
AcDbLine
  8
Gabarit
 62
256
370
-1
  6
ByLayer
 10
-1890.0
 20
1020.0
 30
0.0
 11
-1837.0
 21
1020.0
 31
0.0
  0
LINE
  5
E6
100
AcDbEntity
100
AcDbLine
  8
Gabarit
 62
256
370
-1
  6
ByLayer
 10
-1837.0
 20
1020.0
 30
0.0
 11
-1837.0
 21
1000.0
 31
0.0
  0
LINE
  5
E7
100
AcDbEntity
100
AcDbLine
  8
Gabarit
 62
256
370
-1
  6
ByLayer
 10
-1837.0
 20
1000.0
 30
0.0
 11
-1890.0
 21
1000.0
 31
0.0
  0
LINE
  5
E8
100
AcDbEntity
100
AcDbLine
  8
Gabarit
 62
256
370
-1
  6
ByLayer
 10
-1810.0
 20
1000.0
 30
0.0
 11
-1810.0
 21
1020.0
 31
0.0
  0
LINE
  5
E9
100
AcDbEntity
100
AcDbLine
  8
Gabarit
 62
256
370
-1
  6
ByLayer
 10
-1810.0
 20
1020.0
 30
0.0
 11
-1757.0
 21
1020.0
 31
0.0
  0
LINE
  5
EA
100
AcDbEntity
100
AcDbLine
  8
Gabarit
 62
256
370
-1
  6
ByLayer
 10
-1757.0
 20
1020.0
 30
0.0
 11
-1757.0
 21
1000.0
 31
0.0
  0
LINE
  5
EB
100
AcDbEntity
100
AcDbLine
  8
Gabarit
 62
256
370
-1
  6
ByLayer
 10
-1757.0
 20
1000.0
 30
0.0
 11
-1810.0
 21
1000.0
 31
0.0
  0
LINE
  5
EC
100
AcDbEntity
100
AcDbLine
  8
Gabarit
 62
256
370
-1
  6
ByLayer
 10
-1730.0
 20
990.0
 30
0.0
 11
-1710.0
 21
990.0
 31
0.0
  0
LINE
  5
ED
100
AcDbEntity
100
AcDbLine
  8
Gabarit
 62
256
370
-1
  6
ByLayer
 10
-1710.0
 20
990.0
 30
0.0
 11
-1710.0
 21
937.0
 31
0.0
  0
LINE
  5
EE
100
AcDbEntity
100
AcDbLine
  8
Gabarit
 62
256
370
-1
  6
ByLayer
 10
-1710.0
 20
937.0
 30
0.0
 11
-1730.0
 21
937.0
 31
0.0
  0
LINE
  5
EF
100
AcDbEntity
100
AcDbLine
  8
Gabarit
 62
256
370
-1
  6
ByLayer
 10
-1730.0
 20
937.0
 30
0.0
 11
-1730.0
 21
990.0
 31
0.0
  0
LINE
  5
F0
100
AcDbEntity
100
AcDbLine
  8
Gabarit
 62
256
370
-1
  6
ByLayer
 10
-1700.0
 20
990.0
 30
0.0
 11
-1680.0
 21
990.0
 31
0.0
  0
LINE
  5
F1
100
AcDbEntity
100
AcDbLine
  8
Gabarit
 62
256
370
-1
  6
ByLayer
 10
-1680.0
 20
990.0
 30
0.0
 11
-1680.0
 21
937.0
 31
0.0
  0
LINE
  5
F2
100
AcDbEntity
100
AcDbLine
  8
Gabarit
 62
256
370
-1
  6
ByLayer
 10
-1680.0
 20
937.0
 30
0.0
 11
-1700.0
 21
937.0
 31
0.0
  0
LINE
  5
F3
100
AcDbEntity
100
AcDbLine
  8
Gabarit
 62
256
370
-1
  6
ByLayer
 10
-1700.0
 20
937.0
 30
0.0
 11
-1700.0
 21
990.0
 31
0.0
  0
LINE
  5
F4
100
AcDbEntity
100
AcDbLine
  8
Gabarit
 62
256
370
-1
  6
ByLayer
 10
-1896.0
 20
773.4999999897622729
 30
0.0
 11
-1893.0
 21
773.4999999899583827
 31
0.0
  0
LINE
  5
F5
100
AcDbEntity
100
AcDbLine
  8
Gabarit
 62
256
370
-1
  6
ByLayer
 10
-1826.0
 20
773.4999999943370312
 30
0.0
 11
-1823.0
 21
773.499999994533141
 31
0.0
  0
LINE
  5
F6
100
AcDbEntity
100
AcDbLine
  8
Gabarit
 62
256
370
-1
  6
ByLayer
 10
-1756.0
 20
773.4999999989117896
 30
0.0
 11
-1753.0
 21
773.4999999991078994
 31
0.0
  0
LINE
  5
F7
100
AcDbEntity
100
AcDbLine
  8
Gabarit
 62
256
370
-1
  6
ByLayer
 10
-1756.0
 20
826.4999999989117896
 30
0.0
 11
-1753.0
 21
826.4999999991078994
 31
0.0
  0
LINE
  5
F8
100
AcDbEntity
100
AcDbLine
  8
Gabarit
 62
256
370
-1
  6
ByLayer
 10
-1826.0
 20
826.4999999943370312
 30
0.0
 11
-1823.0
 21
826.499999994533141
 31
0.0
  0
LINE
  5
F9
100
AcDbEntity
100
AcDbLine
  8
Gabarit
 62
256
370
-1
  6
ByLayer
 10
-1896.0
 20
826.4999999897622729
 30
0.0
 11
-1893.0
 21
826.4999999899583827
 31
0.0
  0
LINE
  5
FA
100
AcDbEntity
100
AcDbLine
  8
Gabarit
 62
256
370
-1
  6
ByLayer
 10
-1893.0
 20
773.4999999899583827
 30
0.0
 11
-1893.0
 21
826.4999999899583827
 31
0.0
  0
LINE
  5
FB
100
AcDbEntity
100
AcDbLine
  8
Gabarit
 62
256
370
-1
  6
ByLayer
 10
-1896.0
 20
773.4999999897622729
 30
0.0
 11
-1896.0
 21
826.4999999897622729
 31
0.0
  0
LINE
  5
FC
100
AcDbEntity
100
AcDbLine
  8
Gabarit
 62
256
370
-1
  6
ByLayer
 10
-1826.0
 20
773.4999999943381681
 30
0.0
 11
-1826.0
 21
826.4999999943381681
 31
0.0
  0
LINE
  5
FD
100
AcDbEntity
100
AcDbLine
  8
Gabarit
 62
256
370
-1
  6
ByLayer
 10
-1823.0
 20
773.4999999945342779
 30
0.0
 11
-1823.0
 21
826.4999999945342779
 31
0.0
  0
LINE
  5
FE
100
AcDbEntity
100
AcDbLine
  8
Gabarit
 62
256
370
-1
  6
ByLayer
 10
-1756.0
 20
773.4999999989140633
 30
0.0
 11
-1756.0
 21
826.4999999989140633
 31
0.0
  0
LINE
  5
FF
100
AcDbEntity
100
AcDbLine
  8
Gabarit
 62
256
370
-1
  6
ByLayer
 10
-1753.0
 20
773.4999999991101731
 30
0.0
 11
-1753.0
 21
826.4999999991101731
 31
0.0
  0
ENDSEC
  0
SECTION
  2
OBJECTS
  0
DICTIONARY
  5
C
100
AcDbDictionary
280
0
281
1
  3
ACAD_GROUP
350
D
  3
ACAD_LAYOUT
350
1A
  3
ACAD_MLINESTYLE
350
17
  3
ACAD_PLOTSETTINGS
350
19
  3
ACAD_PLOTSTYLENAME
350
E
  3
AcDbVariableDictionary
350
100
  0
DICTIONARY
  5
D
100
AcDbDictionary
280
0
281
1
  0
ACDBDICTIONARYWDFLT
  5
E
100
AcDbDictionary
281
1
  3
Normal
350
F
100
AcDbDictionaryWithDefault
340
F
  0
ACDBPLACEHOLDER
  5
F
  0
DICTIONARY
  5
17
100
AcDbDictionary
280
0
281
1
  3
Standard
350
18
  0
MLINESTYLE
  5
18
100
AcDbMlineStyle
  2
STANDARD
 70
0
  3

 62
256
 51
90.0
 52
90.0
 71
2
 49
0.5
 62
256
  6
BYLAYER
 49
-0.5
 62
256
  6
BYLAYER
  0
DICTIONARY
  5
19
100
AcDbDictionary
280
0
281
1
  0
DICTIONARY
  5
1A
100
AcDbDictionary
281
1
  3
Layout1
350
1E
  3
Layout2
350
26
  3
Model
350
22
  0
LAYOUT
  5
1E
100
AcDbPlotSettings
  1

  2
C:\Program Files\AutoCAD 2002\plotters\DWF ePlot (optimized for plotting).pc3
  4

  6

 40
0.0
 41
0.0
 42
0.0
 43
0.0
 44
0.0
 45
0.0
 46
0.0
 47
0.0
 48
0.0
 49
0.0
140
0.0
141
0.0
142
1.0
143
1.0
 70
688
 72
0
 73
0
 74
5
  7

 75
16
147
1.0
148
0.0
149
0.0
100
AcDbLayout
  1
Layout1
 70
1
 71
1
 10
0.0
 20
0.0
 11
420.0
 21
297.0
 12
0.0
 22
0.0
 32
0.0
 14
100000000000000000000.0
 24
100000000000000000000.0
 34
100000000000000000000.0
 15
-100000000000000000000.0
 25
-100000000000000000000.0
 35
-100000000000000000000.0
146
0.0
 13
0.0
 23
0.0
 33
0.0
 16
1.0
 26
0.0
 36
0.0
 17
0.0
 27
1.0
 37
0.0
 76
0
330
1B
  0
LAYOUT
  5
22
100
AcDbPlotSettings
  1

  2
C:\Program Files\AutoCAD 2002\plotters\DWF ePlot (optimized for plotting).pc3
  4

  6

 40
0.0
 41
0.0
 42
0.0
 43
0.0
 44
0.0
 45
0.0
 46
0.0
 47
0.0
 48
0.0
 49
0.0
140
0.0
141
0.0
142
1.0
143
1.0
 70
1712
 72
0
 73
0
 74
0
  7

 75
0
147
1.0
148
0.0
149
0.0
100
AcDbLayout
  1
Model
 70
1
 71
0
 10
0.0
 20
0.0
 11
12.0
 21
9.0
 12
0.0
 22
0.0
 32
0.0
 14
0.0
 24
0.0
 34
0.0
 15
0.0
 25
0.0
 35
0.0
146
0.0
 13
0.0
 23
0.0
 33
0.0
 16
1.0
 26
0.0
 36
0.0
 17
0.0
 27
1.0
 37
0.0
 76
0
330
1F
  0
LAYOUT
  5
26
100
AcDbPlotSettings
  1

  2
C:\Program Files\AutoCAD 2002\plotters\DWF ePlot (optimized for plotting).pc3
  4

  6

 40
0.0
 41
0.0
 42
0.0
 43
0.0
 44
0.0
 45
0.0
 46
0.0
 47
0.0
 48
0.0
 49
0.0
140
0.0
141
0.0
142
1.0
143
1.0
 70
688
 72
0
 73
0
 74
5
  7

 75
16
147
1.0
148
0.0
149
0.0
100
AcDbLayout
  1
Layout2
 70
1
 71
2
 10
0.0
 20
0.0
 11
12.0
 21
9.0
 12
0.0
 22
0.0
 32
0.0
 14
0.0
 24
0.0
 34
0.0
 15
0.0
 25
0.0
 35
0.0
146
0.0
 13
0.0
 23
0.0
 33
0.0
 16
1.0
 26
0.0
 36
0.0
 17
0.0
 27
1.0
 37
0.0
 76
0
330
23
  0
DICTIONARY
  5
100
100
AcDbDictionary
281
1
  3
DIMASSOC
350
102
  3
HIDETEXT
350
101
  0
DICTIONARYVAR
  5
101
100
DictionaryVariables
280
0
  1
2
  0
DICTIONARYVAR
  5
102
100
DictionaryVariables
280
0
  1
1
  0
ENDSEC
  0
EOF
