999
dxflib 2.0.4.8
  0
SECTION
  2
HEADER
  9
$ACADVER
  1
AC1015
  9
$HANDSEED
  5
FFFF
  9
$DIMADEC
 70
2
  9
$GRIDUNIT
 10
0.0
 20
0.0
  9
$DIMASZ
 40
2.5
  9
$DIMGAP
 40
0.625
  9
$LUNITS
 70
2
  9
$AUPREC
 70
2
  9
$SPLINESEGS
 70
8
  9
$INSUNITS
 70
0
  9
$DIMEXO
 40
0.625
  9
$DIMLUNIT
 70
2
  9
$GRIDMODE
 70
1
  9
$DIMTXT
 40
2.5
  9
$LUPREC
 70
4
  9
$DIMSTYLE
  2
Standard
  9
$PLIMMIN
 10
0.0
 20
0.0
  9
$PLIMMAX
 10
297.0
 20
210.0
  9
$DIMEXE
 40
1.25
  9
$PINSBASE
 10
5.4650737061228369
 20
6.6369047619048089
 30
0.0
  9
$DIMAUNIT
 70
0
  9
$AUNITS
 70
0
  0
ENDSEC
  0
SECTION
  2
TABLES
  0
TABLE
  2
VPORT
  5
8
100
AcDbSymbolTable
 70
1
  0
VPORT
  5
30
100
AcDbSymbolTableRecord
100
AcDbViewportTableRecord
  2
*Active
 70
0
 10
0.0
 20
0.0
 11
1.0
 21
1.0
 12
286.3055555555554861
 22
148.5
 13
0.0
 23
0.0
 14
10.0
 24
10.0
 15
10.0
 25
10.0
 16
0.0
 26
0.0
 36
1.0
 17
0.0
 27
0.0
 37
0.0
 40
297.0
 41
1.92798353909465
 42
50.0
 43
0.0
 44
0.0
 50
0.0
 51
0.0
 71
0
 72
100
 73
1
 74
3
 75
1
 76
1
 77
0
 78
0
281
0
 65
1
110
0.0
120
0.0
130
0.0
111
1.0
121
0.0
131
0.0
112
0.0
122
1.0
132
0.0
 79
0
146
0.0
  0
ENDTAB
  0
TABLE
  2
LTYPE
  5
5
100
AcDbSymbolTable
 70
21
  0
LTYPE
  5
14
100
AcDbSymbolTableRecord
100
AcDbLinetypeTableRecord
  2
ByBlock
 70
0
  3

 72
65
 73
0
 40
0.0
  0
LTYPE
  5
15
100
AcDbSymbolTableRecord
100
AcDbLinetypeTableRecord
  2
ByLayer
 70
0
  3

 72
65
 73
0
 40
0.0
  0
LTYPE
  5
16
100
AcDbSymbolTableRecord
100
AcDbLinetypeTableRecord
  2
CONTINUOUS
 70
0
  3
Solid line
 72
65
 73
0
 40
0.0
  0
LTYPE
  5
31
100
AcDbSymbolTableRecord
100
AcDbLinetypeTableRecord
  2
DOT
 70
0
  3
Dot . . . . . . . . . . . . . . . . . . . . . .
 72
65
 73
2
 40
6.3499999999999996
 49
0.0
 74
0
 49
-6.3499999999999996
 74
0
  0
LTYPE
  5
32
100
AcDbSymbolTableRecord
100
AcDbLinetypeTableRecord
  2
DOT2
 70
0
  3
Dot (.5x) .....................................
 72
65
 73
2
 40
3.1749999999999998
 49
0.0
 74
0
 49
-3.1749999999999998
 74
0
  0
LTYPE
  5
33
100
AcDbSymbolTableRecord
100
AcDbLinetypeTableRecord
  2
DOTX2
 70
0
  3
Dot (2x) .  .  .  .  .  .  .  .  .  .  .  .  .
 72
65
 73
2
 40
12.6999999999999993
 49
0.0
 74
0
 49
-12.6999999999999993
 74
0
  0
LTYPE
  5
34
100
AcDbSymbolTableRecord
100
AcDbLinetypeTableRecord
  2
DASHED
 70
0
  3
Dashed __ __ __ __ __ __ __ __ __ __ __ __ __ _
 72
65
 73
2
 40
19.0500000000000007
 49
12.6999999999999993
 74
0
 49
-6.3499999999999996
 74
0
  0
LTYPE
  5
35
100
AcDbSymbolTableRecord
100
AcDbLinetypeTableRecord
  2
DASHED2
 70
0
  3
Dashed (.5x) _ _ _ _ _ _ _ _ _ _ _ _ _ _ _ _ _
 72
65
 73
2
 40
9.5250000000000004
 49
6.3499999999999996
 74
0
 49
-3.1749999999999998
 74
0
  0
LTYPE
  5
36
100
AcDbSymbolTableRecord
100
AcDbLinetypeTableRecord
  2
DASHEDX2
 70
0
  3
Dashed (2x) ____  ____  ____  ____  ____  ___
 72
65
 73
2
 40
38.1000000000000014
 49
25.3999999999999986
 74
0
 49
-12.6999999999999993
 74
0
  0
LTYPE
  5
37
100
AcDbSymbolTableRecord
100
AcDbLinetypeTableRecord
  2
DASHDOT
 70
0
  3
Dash dot __ . __ . __ . __ . __ . __ . __ . __
 72
65
 73
4
 40
25.3999999999999986
 49
12.6999999999999993
 74
0
 49
-6.3499999999999996
 74
0
 49
0.0
 74
0
 49
-6.3499999999999996
 74
0
  0
LTYPE
  5
38
100
AcDbSymbolTableRecord
100
AcDbLinetypeTableRecord
  2
DASHDOT2
 70
0
  3
Dash dot (.5x) _._._._._._._._._._._._._._._.
 72
65
 73
4
 40
12.6999999999999993
 49
6.3499999999999996
 74
0
 49
-3.1749999999999998
 74
0
 49
0.0
 74
0
 49
-3.1749999999999998
 74
0
  0
LTYPE
  5
39
100
AcDbSymbolTableRecord
100
AcDbLinetypeTableRecord
  2
DASHDOTX2
 70
0
  3
Dash dot (2x) ____  .  ____  .  ____  .  ___
 72
65
 73
4
 40
50.7999999999999972
 49
25.3999999999999986
 74
0
 49
-12.6999999999999993
 74
0
 49
0.0
 74
0
 49
-12.6999999999999993
 74
0
  0
LTYPE
  5
3A
100
AcDbSymbolTableRecord
100
AcDbLinetypeTableRecord
  2
DIVIDE
 70
0
  3
Divide ____ . . ____ . . ____ . . ____ . . ____
 72
65
 73
6
 40
31.75
 49
12.6999999999999993
 74
0
 49
-6.3499999999999996
 74
0
 49
0.0
 74
0
 49
-6.3499999999999996
 74
0
 49
0.0
 74
0
 49
-6.3499999999999996
 74
0
  0
LTYPE
  5
3B
100
AcDbSymbolTableRecord
100
AcDbLinetypeTableRecord
  2
DIVIDE2
 70
0
  3
Divide (.5x) __..__..__..__..__..__..__..__.._
 72
65
 73
6
 40
15.875
 49
6.3499999999999996
 74
0
 49
-3.1749999999999998
 74
0
 49
0.0
 74
0
 49
-3.1749999999999998
 74
0
 49
0.0
 74
0
 49
-3.1749999999999998
 74
0
  0
LTYPE
  5
3C
100
AcDbSymbolTableRecord
100
AcDbLinetypeTableRecord
  2
DIVIDEX2
 70
0
  3
Divide (2x) ________  .  .  ________  .  .  _
 72
65
 73
6
 40
63.5
 49
25.3999999999999986
 74
0
 49
-12.6999999999999993
 74
0
 49
0.0
 74
0
 49
-12.6999999999999993
 74
0
 49
0.0
 74
0
 49
-12.6999999999999993
 74
0
  0
LTYPE
  5
3D
100
AcDbSymbolTableRecord
100
AcDbLinetypeTableRecord
  2
CENTER
 70
0
  3
Center ____ _ ____ _ ____ _ ____ _ ____ _ ____
 72
65
 73
4
 40
50.7999999999999972
 49
31.75
 74
0
 49
-6.3499999999999996
 74
0
 49
6.3499999999999996
 74
0
 49
-6.3499999999999996
 74
0
  0
LTYPE
  5
3E
100
AcDbSymbolTableRecord
100
AcDbLinetypeTableRecord
  2
CENTER2
 70
0
  3
Center (.5x) ___ _ ___ _ ___ _ ___ _ ___ _ ___
 72
65
 73
4
 40
28.5749999999999993
 49
19.0500000000000007
 74
0
 49
-3.1749999999999998
 74
0
 49
3.1749999999999998
 74
0
 49
-3.1749999999999998
 74
0
  0
LTYPE
  5
3F
100
AcDbSymbolTableRecord
100
AcDbLinetypeTableRecord
  2
CENTERX2
 70
0
  3
Center (2x) ________  __  ________  __  _____
 72
65
 73
4
 40
101.5999999999999943
 49
63.5
 74
0
 49
-12.6999999999999993
 74
0
 49
12.6999999999999993
 74
0
 49
-12.6999999999999993
 74
0
  0
LTYPE
  5
40
100
AcDbSymbolTableRecord
100
AcDbLinetypeTableRecord
  2
BORDER
 70
0
  3
Border __ __ . __ __ . __ __ . __ __ . __ __ .
 72
65
 73
6
 40
44.4500000000000028
 49
12.6999999999999993
 74
0
 49
-6.3499999999999996
 74
0
 49
12.6999999999999993
 74
0
 49
-6.3499999999999996
 74
0
 49
0.0
 74
0
 49
-6.3499999999999996
 74
0
  0
LTYPE
  5
41
100
AcDbSymbolTableRecord
100
AcDbLinetypeTableRecord
  2
BORDER2
 70
0
  3
Border (.5x) __.__.__.__.__.__.__.__.__.__.__.
 72
65
 73
6
 40
22.2250000000000014
 49
6.3499999999999996
 74
0
 49
-3.1749999999999998
 74
0
 49
6.3499999999999996
 74
0
 49
-3.1749999999999998
 74
0
 49
0.0
 74
0
 49
-3.1749999999999998
 74
0
  0
LTYPE
  5
42
100
AcDbSymbolTableRecord
100
AcDbLinetypeTableRecord
  2
BORDERX2
 70
0
  3
Border (2x) ____  ____  .  ____  ____  .  ___
 72
65
 73
6
 40
88.9000000000000057
 49
25.3999999999999986
 74
0
 49
-12.6999999999999993
 74
0
 49
25.3999999999999986
 74
0
 49
-12.6999999999999993
 74
0
 49
0.0
 74
0
 49
-12.6999999999999993
 74
0
  0
ENDTAB
  0
TABLE
  2
LAYER
  5
2
100
AcDbSymbolTable
 70
4
  0
LAYER
  5
10
100
AcDbSymbolTableRecord
100
AcDbLayerTableRecord
  2
0
 70
0
 62
1
  6
CONTINUOUS
370
0
390
F
  0
LAYER
  5
43
100
AcDbSymbolTableRecord
100
AcDbLayerTableRecord
  2
Brut
 70
0
 62
3
  6
CONTINUOUS
370
50
390
F
  0
LAYER
  5
44
100
AcDbSymbolTableRecord
100
AcDbLayerTableRecord
  2
pliages
 70
0
 62
5
  6
CONTINUOUS
370
13
390
F
  0
LAYER
  5
45
100
AcDbSymbolTableRecord
100
AcDbLayerTableRecord
  2
axes
 70
0
 62
4
  6
DASHDOT
370
20
390
F
  0
ENDTAB
  0
TABLE
  2
STYLE
  5
3
100
AcDbSymbolTable
 70
1
  0
STYLE
  5
11
100
AcDbSymbolTableRecord
100
AcDbTextStyleTableRecord
  2
Standard
 70
0
 40
0.0
 41
0.75
 50
0.0
 71
0
 42
2.5
  3
txt
  4

  0
ENDTAB
  0
TABLE
  2
VIEW
  5
6
100
AcDbSymbolTable
 70
0
  0
ENDTAB
  0
TABLE
  2
UCS
  5
7
100
AcDbSymbolTable
 70
0
  0
ENDTAB
  0
TABLE
  2
APPID
  5
9
100
AcDbSymbolTable
 70
1
  0
APPID
  5
12
100
AcDbSymbolTableRecord
100
AcDbRegAppTableRecord
  2
ACAD
 70
0
  0
ENDTAB
  0
TABLE
  2
DIMSTYLE
  5
A
100
AcDbSymbolTable
 70
1
100
AcDbDimStyleTable
 71
0
  0
DIMSTYLE
105
27
100
AcDbSymbolTableRecord
100
AcDbDimStyleTableRecord
  2
Standard
 41
2.5
 42
0.625
 43
3.75
 44
1.25
 70
0
 73
0
 74
0
 77
1
 78
8
140
2.5
141
2.5
143
0.03937007874016
147
0.625
171
3
172
1
271
2
272
2
274
3
278
44
283
0
284
8
340
11
  0
ENDTAB
  0
TABLE
  2
BLOCK_RECORD
  5
1
100
AcDbSymbolTable
 70
1
  0
BLOCK_RECORD
  5
1F
100
AcDbSymbolTableRecord
100
AcDbBlockTableRecord
  2
*Model_Space
340
22
  0
BLOCK_RECORD
  5
1B
100
AcDbSymbolTableRecord
100
AcDbBlockTableRecord
  2
*Paper_Space
340
1E
  0
BLOCK_RECORD
  5
23
100
AcDbSymbolTableRecord
100
AcDbBlockTableRecord
  2
*Paper_Space0
340
26
  0
ENDTAB
  0
ENDSEC
  0
SECTION
  2
BLOCKS
  0
BLOCK
  5
20
100
AcDbEntity
  8
0
100
AcDbBlockBegin
  2
*Model_Space
 70
0
 10
0.0
 20
0.0
 30
0.0
  3
*Model_Space
  1

  0
ENDBLK
  5
21
100
AcDbEntity
  8
0
100
AcDbBlockEnd
  0
BLOCK
  5
1C
100
AcDbEntity
 67
1
  8
0
100
AcDbBlockBegin
  2
*Paper_Space
 70
0
 10
0.0
 20
0.0
 30
0.0
  3
*Paper_Space
  1

  0
ENDBLK
  5
1D
100
AcDbEntity
 67
1
  8
0
100
AcDbBlockEnd
  0
BLOCK
  5
24
100
AcDbEntity
  8
0
100
AcDbBlockBegin
  2
*Paper_Space0
 70
0
 10
0.0
 20
0.0
 30
0.0
  3
*Paper_Space0
  1

  0
ENDBLK
  5
25
100
AcDbEntity
  8
0
100
AcDbBlockEnd
  0
ENDSEC
  0
SECTION
  2
ENTITIES
  0
LINE
  5
46
100
AcDbEntity
100
AcDbLine
  8
Brut
 62
256
370
-1
  6
ByLayer
 10
0.0
 20
0.0
 30
0.0
 11
248.0
 21
0.0
 31
0.0
  0
LINE
  5
47
100
AcDbEntity
100
AcDbLine
  8
Brut
 62
256
370
-1
  6
ByLayer
 10
248.0
 20
0.0
 30
0.0
 11
248.0
 21
198.0
 31
0.0
  0
LINE
  5
48
100
AcDbEntity
100
AcDbLine
  8
Brut
 62
256
370
-1
  6
ByLayer
 10
248.0
 20
198.0
 30
0.0
 11
0.0
 21
198.0
 31
0.0
  0
LINE
  5
49
100
AcDbEntity
100
AcDbLine
  8
Brut
 62
256
370
-1
  6
ByLayer
 10
0.0
 20
198.0
 30
0.0
 11
0.0
 21
0.0
 31
0.0
  0
LINE
  5
4A
100
AcDbEntity
100
AcDbLine
  8
axes
 62
256
370
-1
  6
ByLayer
 10
63.0
 20
117.5000001014329456
 30
0.0
 11
63.0
 21
32.5000001014329456
 31
0.0
  0
LINE
  5
4B
100
AcDbEntity
100
AcDbLine
  8
axes
 62
256
370
-1
  6
ByLayer
 10
56.1900523355830899
 20
110.0000000150163686
 30
0.0
 11
70.0685570084802833
 21
109.9999999844133782
 31
0.0
  0
LINE
  5
4C
100
AcDbEntity
100
AcDbLine
  8
axes
 62
256
370
-1
  6
ByLayer
 10
54.9564074785108829
 20
40.0000000177366388
 30
0.0
 11
70.0685570105410989
 21
39.9999999844133782
 31
0.0
  0
LINE
  5
4D
100
AcDbEntity
100
AcDbLine
  8
pliages
 62
256
370
-1
  6
ByLayer
 10
228.5
 20
119.9999995622947608
 30
0.0
 11
228.5
 21
29.9999995622947608
 31
0.0
  0
LINE
  5
4E
100
AcDbEntity
100
AcDbLine
  8
pliages
 62
256
370
-1
  6
ByLayer
 10
234.0
 20
119.9999995622947608
 30
0.0
 11
234.0
 21
29.9999995622947608
 31
0.0
  0
LINE
  5
4F
100
AcDbEntity
100
AcDbLine
  8
pliages
 62
256
370
-1
  6
ByLayer
 10
231.25
 20
129.9999995622947608
 30
0.0
 11
231.25
 21
19.9999995622947608
 31
0.0
  0
LINE
  5
50
100
AcDbEntity
100
AcDbLine
  8
pliages
 62
256
370
-1
  6
ByLayer
 10
34.7491999999999734
 20
32.5000000622948164
 30
0.0
 11
34.7491999999999734
 21
117.5000000622948164
 31
0.0
  0
LINE
  5
51
100
AcDbEntity
100
AcDbLine
  8
pliages
 62
256
370
-1
  6
ByLayer
 10
53.2491999999999734
 20
122.4920725622948794
 30
0.0
 11
53.2491999999999734
 21
27.5079275622947605
 31
0.0
  0
LINE
  5
52
100
AcDbEntity
100
AcDbLine
  8
pliages
 62
256
370
-1
  6
ByLayer
 10
73.2491999999999734
 20
122.4920725622948794
 30
0.0
 11
73.2491999999999734
 21
27.5079275622947534
 31
0.0
  0
LINE
  5
53
100
AcDbEntity
100
AcDbLine
  8
pliages
 62
256
370
-1
  6
ByLayer
 10
113.0
 20
182.0
 30
0.0
 11
16.9999999999999964
 21
182.0
 31
0.0
  0
LINE
  5
54
100
AcDbEntity
100
AcDbLine
  8
axes
 62
256
370
-1
  6
ByLayer
 10
87.8023520000001554
 20
69.9997736014330059
 30
0.0
 11
87.8023520000001554
 21
79.9997736014330059
 31
0.0
  0
LINE
  5
55
100
AcDbEntity
100
AcDbLine
  8
axes
 62
256
370
-1
  6
ByLayer
 10
117.8023520000001554
 20
69.9997736014330059
 30
0.0
 11
117.8023520000001554
 21
79.9997736014330059
 31
0.0
  0
LINE
  5
56
100
AcDbEntity
100
AcDbLine
  8
axes
 62
256
370
-1
  6
ByLayer
 10
188.7604270000001634
 20
53.7489186014330045
 30
0.0
 11
188.7604270000001634
 21
63.7489186014330045
 31
0.0
  0
LINE
  5
57
100
AcDbEntity
100
AcDbLine
  8
axes
 62
256
370
-1
  6
ByLayer
 10
188.7604270000001634
 20
86.2488646014329134
 30
0.0
 11
188.7604270000001634
 21
96.2488646014329134
 31
0.0
  0
LINE
  5
58
100
AcDbEntity
100
AcDbLine
  8
axes
 62
256
370
-1
  6
ByLayer
 10
183.7604270000001634
 20
91.2488646014329134
 30
0.0
 11
193.7604270000001634
 21
91.2488646014329134
 31
0.0
  0
LINE
  5
59
100
AcDbEntity
100
AcDbLine
  8
axes
 62
256
370
-1
  6
ByLayer
 10
183.7604270000001634
 20
58.7489186014330045
 30
0.0
 11
193.7604270000001634
 21
58.7489186014330045
 31
0.0
  0
LINE
  5
5A
100
AcDbEntity
100
AcDbLine
  8
axes
 62
256
370
-1
  6
ByLayer
 10
14.0
 20
75.0000001014329456
 30
0.0
 11
80.5545383213222408
 21
74.9999999612911097
 31
0.0
  0
LINE
  5
5B
100
AcDbEntity
100
AcDbLine
  8
axes
 62
256
370
-1
  6
ByLayer
 10
80.5545383213222408
 20
74.9999999612911097
 30
0.0
 11
246.7508000000000266
 21
74.99999960143289
 31
0.0
  0
LINE
  5
5C
100
AcDbEntity
100
AcDbLine
  8
axes
 62
256
370
-1
  6
ByLayer
 10
82.0
 20
136.0
 30
0.0
 11
92.0
 21
136.0
 31
0.0
  0
LINE
  5
5D
100
AcDbEntity
100
AcDbLine
  8
axes
 62
256
370
-1
  6
ByLayer
 10
90.0
 20
136.0
 30
0.0
 11
100.0
 21
136.0
 31
0.0
  0
LINE
  5
5E
100
AcDbEntity
100
AcDbLine
  8
axes
 62
256
370
-1
  6
ByLayer
 10
83.5
 20
134.0
 30
0.0
 11
83.5
 21
138.0
 31
0.0
  0
LINE
  5
5F
100
AcDbEntity
100
AcDbLine
  8
axes
 62
256
370
-1
  6
ByLayer
 10
98.5
 20
138.0
 30
0.0
 11
98.5
 21
134.0
 31
0.0
  0
LINE
  5
60
100
AcDbEntity
100
AcDbLine
  8
pliages
 62
256
370
-1
  6
ByLayer
 10
170.0
 20
156.0
 30
0.0
 11
170.0000000000000284
 21
188.0
 31
0.0
  0
LINE
  5
61
100
AcDbEntity
100
AcDbLine
  8
pliages
 62
256
370
-1
  6
ByLayer
 10
141.5
 20
156.0
 30
0.0
 11
141.5
 21
188.0000000000000284
 31
0.0
  0
LINE
  5
62
100
AcDbEntity
100
AcDbLine
  8
pliages
 62
256
370
-1
  6
ByLayer
 10
211.0
 20
155.9999999999999716
 30
0.0
 11
211.0
 21
160.0
 31
0.0
  0
LINE
  5
63
100
AcDbEntity
100
AcDbLine
  8
pliages
 62
256
370
-1
  6
ByLayer
 10
211.0
 20
160.0
 30
0.0
 11
211.0
 21
187.9999999999999716
 31
0.0
  0
LINE
  5
64
100
AcDbEntity
100
AcDbLine
  8
axes
 62
256
370
-1
  6
ByLayer
 10
206.0
 20
175.9999999999999716
 30
0.0
 11
206.0
 21
165.9999999999999716
 31
0.0
  0
LINE
  5
65
100
AcDbEntity
100
AcDbLine
  8
axes
 62
256
370
-1
  6
ByLayer
 10
176.0
 20
176.0
 30
0.0
 11
176.0
 21
166.0
 31
0.0
  0
LINE
  5
66
100
AcDbEntity
100
AcDbLine
  8
axes
 62
256
370
-1
  6
ByLayer
 10
222.0
 20
175.9999999999999716
 30
0.0
 11
222.0
 21
166.0
 31
0.0
  0
LINE
  5
67
100
AcDbEntity
100
AcDbLine
  8
axes
 62
256
370
-1
  6
ByLayer
 10
131.0
 20
176.0000000000000568
 30
0.0
 11
131.0
 21
165.9999999999999432
 31
0.0
  0
LINE
  5
68
100
AcDbEntity
100
AcDbLine
  8
axes
 62
256
370
-1
  6
ByLayer
 10
211.0
 20
171.0
 30
0.0
 11
201.0
 21
171.0
 31
0.0
  0
LINE
  5
69
100
AcDbEntity
100
AcDbLine
  8
axes
 62
256
370
-1
  6
ByLayer
 10
227.0
 20
171.0
 30
0.0
 11
217.0
 21
171.0
 31
0.0
  0
LINE
  5
6A
100
AcDbEntity
100
AcDbLine
  8
axes
 62
256
370
-1
  6
ByLayer
 10
181.0
 20
171.0
 30
0.0
 11
171.0
 21
171.0
 31
0.0
  0
LINE
  5
6B
100
AcDbEntity
100
AcDbLine
  8
axes
 62
256
370
-1
  6
ByLayer
 10
136.0
 20
171.0
 30
0.0
 11
126.0
 21
171.0
 31
0.0
  0
ARC
  5
6C
100
AcDbEntity
  8
axes
 62
256
370
-1
  6
ByLayer
100
AcDbCircle
 10
57.4054346568229903
 20
74.9877066571405066
 30
0.0
 40
13.5945709015101528
100
AcDbArc
 50
317.0970806153707713
 51
43.0065426270322959
  0
ARC
  5
6D
100
AcDbEntity
  8
0
 62
1
370
0
  6
ByLayer
100
AcDbCircle
 10
61.2095412741972638
 20
9.4128030813494945
 30
0.0
 40
4.9976339999999997
100
AcDbArc
 50
265.061774000000014
 51
286.4645889999999895
  0
ARC
  5
6E
100
AcDbEntity
  8
0
 62
1
370
0
  6
ByLayer
100
AcDbCircle
 10
61.2095412741972638
 20
9.4128030813494945
 30
0.0
 40
4.9976339999999997
100
AcDbArc
 50
285.8718230000000062
 51
0.0500659999998963
  0
ARC
  5
6F
100
AcDbEntity
  8
0
 62
1
370
0
  6
ByLayer
100
AcDbCircle
 10
61.2095407569086447
 20
20.1747419663291794
 30
0.0
 40
5.0
100
AcDbArc
 50
0.0000008537736463
 51
74.5286729999999977
  0
ARC
  5
70
100
AcDbEntity
  8
0
 62
1
370
0
  6
ByLayer
100
AcDbCircle
 10
9.2095409670290707
 20
13.7461349088139002
 30
0.0
 40
5.0
100
AcDbArc
 50
180.0000008537736562
 51
265.2363589999999931
  0
ARC
  5
71
100
AcDbEntity
  8
0
 62
1
370
0
  6
ByLayer
100
AcDbCircle
 10
6.209540952316857
 20
37.478804215078938
 30
0.0
 40
2.0
100
AcDbArc
 50
90.0000009999999691
 51
180.0000008537736562
  0
LINE
  5
72
100
AcDbEntity
100
AcDbLine
  8
0
 62
1
370
0
  6
ByLayer
 10
66.2095405756550264
 20
20.1747420108698918
 30
0.0
 11
66.2095410929435957
 21
9.4128031258902354
 31
0.0
  0
LINE
  5
73
100
AcDbEntity
100
AcDbLine
  8
0
 62
1
370
0
  6
ByLayer
 10
4.2095402250169656
 20
37.4788042150914009
 30
0.0
 11
4.2095411482826535
 21
13.7461348642731593
 31
0.0
  0
ARC
  5
74
100
AcDbEntity
  8
0
 62
256
370
0
  6
ByLayer
100
AcDbCircle
 10
15.0806273254395862
 20
17.2144135321667022
 30
0.0
 40
5.0
100
AcDbArc
 50
180.0
 51
270.0000006380903983
  0
LINE
  5
75
100
AcDbEntity
100
AcDbLine
  8
0
 62
256
370
0
  6
ByLayer
 10
24.7095405137005457
 20
9.2144135482035381
 30
0.0
 11
24.7095404914332235
 21
12.2144136394016982
 31
0.0
  0
LINE
  5
76
100
AcDbEntity
100
AcDbLine
  8
0
 62
256
370
0
  6
ByLayer
 10
10.0806272666821712
 20
43.4788039260891424
 30
0.0
 11
7.0806272666821428
 21
43.4788039193777536
 31
0.0
  0
ARC
  5
77
100
AcDbEntity
  8
0
 62
256
370
0
  6
ByLayer
100
AcDbCircle
 10
22.2476867948936814
 20
24.3859373458735433
 30
0.0
 40
3.0
100
AcDbArc
 50
270.0000010000005091
 51
0.0000008537736463
  0
LINE
  5
78
100
AcDbEntity
100
AcDbLine
  8
0
 62
256
370
0
  6
ByLayer
 10
22.2476868472535472
 20
21.3859373458734581
 30
0.0
 11
22.2476868472537959
 21
21.3859373458734012
 31
0.0
  0
ARC
  5
79
100
AcDbEntity
  8
0
 62
256
370
0
  6
ByLayer
100
AcDbCircle
 10
22.2476867948936814
 20
24.3859373458735433
 30
0.0
 40
3.0
100
AcDbArc
 50
180.0000008537736562
 51
270.0000010000027828
  0
LINE
  5
7A
100
AcDbEntity
100
AcDbLine
  8
0
 62
256
370
0
  6
ByLayer
 10
19.2476867948936601
 20
24.3859372935137628
 30
0.0
 11
19.247686725080591
 21
28.3859372935131802
 31
0.0
  0
ARC
  5
7B
100
AcDbEntity
  8
0
 62
256
370
0
  6
ByLayer
100
AcDbCircle
 10
22.2476867250805057
 20
28.3859373458729749
 30
0.0
 40
3.0
100
AcDbArc
 50
90.0000010000004806
 51
180.0000008537736562
  0
LINE
  5
7C
100
AcDbEntity
100
AcDbLine
  8
0
 62
256
370
0
  6
ByLayer
 10
22.2476866727204481
 20
31.3859373458731028
 30
0.0
 11
22.2476866727206897
 21
31.3859373458730744
 31
0.0
  0
LINE
  5
7D
100
AcDbEntity
100
AcDbLine
  8
0
 62
256
370
0
  6
ByLayer
 10
25.2476867948937667
 20
24.3859373982332954
 30
0.0
 11
25.2476867250804773
 21
28.3859373982327838
 31
0.0
  0
ARC
  5
7E
100
AcDbEntity
  8
0
 62
256
370
0
  6
ByLayer
100
AcDbCircle
 10
22.2476867250805057
 20
28.3859373458729749
 30
0.0
 40
3.0
100
AcDbArc
 50
0.0000008537736463
 51
90.0000010000027686
  0
LINE
  5
7F
100
AcDbEntity
100
AcDbLine
  8
0
 62
1
370
0
  6
ByLayer
 10
59.9999999999999929
 20
2.0
 30
0.0
 11
55.1265394065761427
 21
29.6387666945112187
 31
0.0
  0
LINE
  5
80
100
AcDbEntity
100
AcDbLine
  8
0
 62
256
370
0
  6
ByLayer
 10
62.954423253339165
 20
2.5209445653123623
 30
0.0
 11
58.0809626599153219
 21
30.159711259823581
 31
0.0
  0
LINE
  5
81
100
AcDbEntity
100
AcDbLine
  8
0
 62
256
370
0
  6
ByLayer
 10
62.954423253339165
 20
2.5209445653123623
 30
0.0
 11
59.9999999999999929
 21
2.0
 31
0.0
  0
LINE
  5
82
100
AcDbEntity
100
AcDbLine
  8
0
 62
256
370
0
  6
ByLayer
 10
58.0809626599153219
 20
30.159711259823581
 30
0.0
 11
55.1265394065761427
 21
29.6387666945112187
 31
0.0
  0
ARC
  5
83
100
AcDbEntity
  8
0
 62
1
370
0
  6
ByLayer
100
AcDbCircle
 10
198.0
 20
24.99999960143289
 30
0.0
 40
5.0
100
AcDbArc
 50
90.0
 51
180.0
  0
ARC
  5
84
100
AcDbEntity
  8
0
 62
1
370
0
  6
ByLayer
100
AcDbCircle
 10
198.0
 20
124.99999960143289
 30
0.0
 40
5.0
100
AcDbArc
 50
180.0
 51
270.0
  0
LINE
  5
85
100
AcDbEntity
100
AcDbLine
  8
0
 62
1
370
0
  6
ByLayer
 10
243.7508000000000266
 20
119.99999960143289
 30
0.0
 11
198.0
 21
119.99999960143289
 31
0.0
  0
LINE
  5
86
100
AcDbEntity
100
AcDbLine
  8
0
 62
1
370
0
  6
ByLayer
 10
198.0
 20
29.99999960143289
 30
0.0
 11
243.7508000000000266
 21
29.99999960143289
 31
0.0
  0
LINE
  5
87
100
AcDbEntity
100
AcDbLine
  8
0
 62
256
370
0
  6
ByLayer
 10
243.7508000000000266
 20
119.99999960143289
 30
0.0
 11
243.7508000000000266
 21
29.99999960143289
 31
0.0
  0
ARC
  5
88
100
AcDbEntity
  8
0
 62
256
370
0
  6
ByLayer
100
AcDbCircle
 10
32.0
 20
97.4920726014330086
 30
0.0
 40
15.0
100
AcDbArc
 50
90.0
 51
180.0
  0
LINE
  5
89
100
AcDbEntity
100
AcDbLine
  8
0
 62
256
370
0
  6
ByLayer
 10
17.0
 20
97.4920726014330086
 30
0.0
 11
17.0
 21
52.5079276014328826
 31
0.0
  0
ARC
  5
8A
100
AcDbEntity
  8
0
 62
256
370
0
  6
ByLayer
100
AcDbCircle
 10
32.0
 20
52.5079276014328826
 30
0.0
 40
15.0
100
AcDbArc
 50
180.0
 51
270.0
  0
LINE
  5
8B
100
AcDbEntity
100
AcDbLine
  8
0
 62
256
370
0
  6
ByLayer
 10
50.8999999999999986
 20
112.4920726014330086
 30
0.0
 11
32.0
 21
112.4920726014330086
 31
0.0
  0
ARC
  5
8C
100
AcDbEntity
  8
0
 62
256
370
0
  6
ByLayer
100
AcDbCircle
 10
50.8999999999999986
 20
114.5920726014330029
 30
0.0
 40
2.1000000000000001
100
AcDbArc
 50
270.0
 51
0.0
  0
LINE
  5
8D
100
AcDbEntity
100
AcDbLine
  8
0
 62
256
370
0
  6
ByLayer
 10
50.8999999999999986
 20
37.5079276014328826
 30
0.0
 11
32.0
 21
37.5079276014328826
 31
0.0
  0
ARC
  5
8E
100
AcDbEntity
  8
0
 62
256
370
0
  6
ByLayer
100
AcDbCircle
 10
50.8999999999999986
 20
35.4079276014328812
 30
0.0
 40
2.1000000000000001
100
AcDbArc
 50
0.0
 51
90.0
  0
ARC
  5
8F
100
AcDbEntity
  8
0
 62
256
370
0
  6
ByLayer
100
AcDbCircle
 10
55.7999999999999972
 20
114.7000001014329342
 30
0.0
 40
2.7999999999999998
100
AcDbArc
 50
90.0
 51
180.0
  0
LINE
  5
90
100
AcDbEntity
100
AcDbLine
  8
0
 62
256
370
0
  6
ByLayer
 10
55.7999999999999972
 20
117.5000001014329456
 30
0.0
 11
70.2000000000000028
 21
117.5000001014329456
 31
0.0
  0
LINE
  5
91
100
AcDbEntity
100
AcDbLine
  8
0
 62
256
370
0
  6
ByLayer
 10
70.2000000000000028
 20
32.5000001014329456
 30
0.0
 11
55.7999999999999972
 21
32.5000001014329456
 31
0.0
  0
ARC
  5
92
100
AcDbEntity
  8
0
 62
256
370
0
  6
ByLayer
100
AcDbCircle
 10
55.7999999999999972
 20
35.3000001014329428
 30
0.0
 40
2.7999999999999998
100
AcDbArc
 50
180.0
 51
270.0
  0
CIRCLE
  5
93
100
AcDbEntity
100
AcDbCircle
  8
0
 62
256
370
0
  6
ByLayer
 10
63.0
 20
109.9999999999999858
 30
0.0
 40
1.51
  0
CIRCLE
  5
94
100
AcDbEntity
100
AcDbCircle
  8
0
 62
256
370
0
  6
ByLayer
 10
63.0
 20
40.0
 30
0.0
 40
1.51
  0
LINE
  5
95
100
AcDbEntity
100
AcDbLine
  8
0
 62
1
370
0
  6
ByLayer
 10
189.7957614860652882
 20
129.5325031514951206
 30
0.0
 11
75.4031788854510268
 21
112.8426949388864813
 31
0.0
  0
LINE
  5
96
100
AcDbEntity
100
AcDbLine
  8
0
 62
1
370
0
  6
ByLayer
 10
193.0
 20
124.99999960143289
 30
0.0
 11
193.0
 21
126.7618369457150465
 31
0.0
  0
ARC
  5
97
100
AcDbEntity
  8
0
 62
256
370
0
  6
ByLayer
100
AcDbCircle
 10
190.1999999999999886
 20
126.7618369457150465
 30
0.0
 40
2.7999999999999998
100
AcDbArc
 50
0.0
 51
98.3008509807587103
  0
LINE
  5
98
100
AcDbEntity
100
AcDbLine
  8
0
 62
1
370
0
  6
ByLayer
 10
193.0
 20
23.2381622838529509
 30
0.0
 11
193.0
 21
24.99999960143289
 31
0.0
  0
LINE
  5
99
100
AcDbEntity
100
AcDbLine
  8
0
 62
1
370
0
  6
ByLayer
 10
75.4031789024067507
 20
37.1573052414790794
 30
0.0
 11
189.7957614634576373
 21
20.4674960813713014
 31
0.0
  0
ARC
  5
9A
100
AcDbEntity
  8
0
 62
256
370
0
  6
ByLayer
100
AcDbCircle
 10
190.1999999999999886
 20
23.2381622838529509
 30
0.0
 40
2.7999999999999998
100
AcDbArc
 50
261.6991485517281149
 51
0.0
  0
ARC
  5
9B
100
AcDbEntity
  8
0
 62
1
370
0
  6
ByLayer
100
AcDbCircle
 10
76.9999995217904143
 20
7.0000044725627504
 30
0.0
 40
3.0000170000000002
100
AcDbArc
 50
152.7294069999999806
 51
269.9998229999999921
  0
ARC
  5
9C
100
AcDbEntity
  8
0
 62
1
370
0
  6
ByLayer
100
AcDbCircle
 10
180.0930871377233871
 20
7.0000308512001084
 30
0.0
 40
3.0000390000000001
100
AcDbArc
 50
269.9999320000000012
 51
0.0003189999999637
  0
ARC
  5
9D
100
AcDbEntity
  8
0
 62
1
370
0
  6
ByLayer
100
AcDbCircle
 10
180.0931227468190627
 20
11.9343770257793267
 30
0.0
 40
3.0000119999999999
100
AcDbArc
 50
359.9999369999999885
 51
80.4666390000000007
  0
ARC
  5
9E
100
AcDbEntity
  8
0
 62
1
370
0
  6
ByLayer
100
AcDbCircle
 10
79.5454085098992891
 20
28.8202925413603452
 30
0.0
 40
3.0000300000000002
100
AcDbArc
 50
80.4668940000000106
 51
193.963390000000004
  0
ARC
  5
9F
100
AcDbEntity
  8
0
 62
1
370
0
  6
ByLayer
100
AcDbCircle
 10
49.2727241575771515
 20
21.2930704484844
 30
0.0
 40
28.1944209999999984
100
AcDbArc
 50
332.7295220000000313
 51
13.9632410000000124
  0
LINE
  5
A0
100
AcDbEntity
100
AcDbLine
  8
0
 62
1
370
0
  6
ByLayer
 10
180.0931111417005468
 20
3.9999998354976469
 30
0.0
 11
77.0
 21
4.0
 31
0.0
  0
LINE
  5
A1
100
AcDbEntity
100
AcDbLine
  8
0
 62
1
370
0
  6
ByLayer
 10
183.0931386296406345
 20
11.934356724045756
 30
0.0
 11
183.0931354839790401
 21
7.0000381922866382
 31
0.0
  0
LINE
  5
A2
100
AcDbEntity
100
AcDbLine
  8
0
 62
1
370
0
  6
ByLayer
 10
80.0422459994747442
 20
31.7788875008598097
 30
0.0
 11
180.5899846245092704
 21
14.8929524604274093
 31
0.0
  0
LINE
  5
A3
100
AcDbEntity
100
AcDbLine
  8
0
 62
256
370
0
  6
ByLayer
 10
186.0931111448919637
 20
5.9999998259238509
 30
0.0
 11
71.0000000031911895
 21
6.0000000095740234
 31
0.0
  0
LINE
  5
A4
100
AcDbEntity
100
AcDbLine
  8
0
 62
256
370
0
  6
ByLayer
 10
186.0931111496788617
 20
8.9999998259236236
 30
0.0
 11
71.0000000079783149
 21
9.0000000095740234
 31
0.0
  0
LINE
  5
A5
100
AcDbEntity
100
AcDbLine
  8
0
 62
256
370
0
  6
ByLayer
 10
71.0000000079783149
 20
9.0000000095740234
 30
0.0
 11
71.0000000031911895
 21
6.0000000095740234
 31
0.0
  0
LINE
  5
A6
100
AcDbEntity
100
AcDbLine
  8
0
 62
256
370
0
  6
ByLayer
 10
186.0931111496788617
 20
8.9999998259236236
 30
0.0
 11
186.0931111448919637
 21
5.9999998259238509
 31
0.0
  0
ARC
  5
A7
100
AcDbEntity
  8
0
 62
1
370
0
  6
ByLayer
100
AcDbCircle
 10
76.9999995217904569
 20
142.9999956164456592
 30
0.0
 40
3.0000170000000002
100
AcDbArc
 50
90.0001769999999937
 51
207.2705929999999341
  0
ARC
  5
A8
100
AcDbEntity
  8
0
 62
1
370
0
  6
ByLayer
100
AcDbCircle
 10
180.0930871377234155
 20
142.9999692378082159
 30
0.0
 40
3.0000390000000001
100
AcDbArc
 50
359.9996810004130339
 51
90.0000679999999988
  0
ARC
  5
A9
100
AcDbEntity
  8
0
 62
1
370
0
  6
ByLayer
100
AcDbCircle
 10
180.0931227468190627
 20
138.0656230632291113
 30
0.0
 40
3.0000119999999999
100
AcDbArc
 50
279.5333610000000135
 51
0.0000630001650438
  0
ARC
  5
AA
100
AcDbEntity
  8
0
 62
1
370
0
  6
ByLayer
100
AcDbCircle
 10
79.5454085098993176
 20
121.1797075476480643
 30
0.0
 40
3.0000300000000002
100
AcDbArc
 50
166.036609999999996
 51
279.5331059999999752
  0
ARC
  5
AB
100
AcDbEntity
  8
0
 62
1
370
0
  6
ByLayer
100
AcDbCircle
 10
49.2727241575771586
 20
128.7069296405240379
 30
0.0
 40
28.1944209999999984
100
AcDbArc
 50
346.0367589999999609
 51
27.2704779999999758
  0
LINE
  5
AC
100
AcDbEntity
100
AcDbLine
  8
0
 62
1
370
0
  6
ByLayer
 10
180.0931111417005752
 20
146.0000002535107626
 30
0.0
 11
77.0
 21
146.000000089008438
 31
0.0
  0
LINE
  5
AD
100
AcDbEntity
100
AcDbLine
  8
0
 62
1
370
0
  6
ByLayer
 10
183.0931386296406345
 20
138.0656433649626535
 30
0.0
 11
183.0931354839790401
 21
142.9999618967217998
 31
0.0
  0
LINE
  5
AE
100
AcDbEntity
100
AcDbLine
  8
0
 62
1
370
0
  6
ByLayer
 10
80.0422459994747442
 20
118.221112588148614
 30
0.0
 11
180.5899846245092704
 21
135.1070476285809718
 31
0.0
  0
LINE
  5
AF
100
AcDbEntity
100
AcDbLine
  8
0
 62
256
370
0
  6
ByLayer
 10
186.0931111448919637
 20
144.000000263084587
 30
0.0
 11
71.0000000031912322
 21
144.0000000794344146
 31
0.0
  0
LINE
  5
B0
100
AcDbEntity
100
AcDbLine
  8
0
 62
256
370
0
  6
ByLayer
 10
186.0931111496788901
 20
141.0000002630847575
 30
0.0
 11
71.0000000079783291
 21
141.0000000794344146
 31
0.0
  0
LINE
  5
B1
100
AcDbEntity
100
AcDbLine
  8
0
 62
256
370
0
  6
ByLayer
 10
71.0000000079783291
 20
141.0000000794344146
 30
0.0
 11
71.0000000031912322
 21
144.0000000794344146
 31
0.0
  0
LINE
  5
B2
100
AcDbEntity
100
AcDbLine
  8
0
 62
256
370
0
  6
ByLayer
 10
186.0931111496788901
 20
141.0000002630847575
 30
0.0
 11
186.0931111448919637
 21
144.000000263084587
 31
0.0
  0
ARC
  5
B3
100
AcDbEntity
  8
0
 62
1
370
0
  6
ByLayer
100
AcDbCircle
 10
61.2095412741972638
 20
140.5871969864659832
 30
0.0
 40
4.9976339999999997
100
AcDbArc
 50
73.5354109999999963
 51
94.9382260000000002
  0
ARC
  5
B4
100
AcDbEntity
  8
0
 62
1
370
0
  6
ByLayer
100
AcDbCircle
 10
61.2095412741972638
 20
140.5871969864659832
 30
0.0
 40
4.9976339999999997
100
AcDbArc
 50
359.9499340000000984
 51
74.1281769999999938
  0
ARC
  5
B5
100
AcDbEntity
  8
0
 62
1
370
0
  6
ByLayer
100
AcDbCircle
 10
61.2095407569086376
 20
129.8252581014862699
 30
0.0
 40
5.0
100
AcDbArc
 50
285.4713269999999739
 51
359.9999991462263438
  0
ARC
  5
B6
100
AcDbEntity
  8
0
 62
1
370
0
  6
ByLayer
100
AcDbCircle
 10
9.2095409670291275
 20
136.2538651590015775
 30
0.0
 40
5.0
100
AcDbArc
 50
94.7636409999999643
 51
179.9999991462263438
  0
ARC
  5
B7
100
AcDbEntity
  8
0
 62
1
370
0
  6
ByLayer
100
AcDbCircle
 10
6.2095409523168641
 20
112.5211958527365113
 30
0.0
 40
2.0
100
AcDbArc
 50
179.9999991462263438
 51
269.9999990000000025
  0
LINE
  5
B8
100
AcDbEntity
100
AcDbLine
  8
0
 62
1
370
0
  6
ByLayer
 10
66.2095405756550548
 20
129.8252580569455574
 30
0.0
 11
66.2095410929436241
 21
140.5871969419252139
 31
0.0
  0
LINE
  5
B9
100
AcDbEntity
100
AcDbLine
  8
0
 62
1
370
0
  6
ByLayer
 10
10.209540385139718
 20
110.5211960806412037
 30
0.0
 11
10.0806273668289563
 21
110.5211961261702811
 31
0.0
  0
LINE
  5
BA
100
AcDbEntity
100
AcDbLine
  8
0
 62
1
370
0
  6
ByLayer
 10
4.2095402250169514
 20
112.5211958527240341
 30
0.0
 11
4.2095411482826037
 21
136.2538652035422615
 31
0.0
  0
ARC
  5
BB
100
AcDbEntity
  8
0
 62
256
370
0
  6
ByLayer
100
AcDbCircle
 10
9.8806273370729727
 20
137.9855866847581467
 30
0.0
 40
2.7999999999999998
100
AcDbArc
 50
89.9999993619101843
 51
180.0
  0
ARC
  5
BC
100
AcDbEntity
  8
0
 62
256
370
0
  6
ByLayer
100
AcDbCircle
 10
15.0806273254396359
 20
132.7855865356487755
 30
0.0
 40
5.0
100
AcDbArc
 50
89.9999993619095733
 51
180.0
  0
LINE
  5
BD
100
AcDbEntity
100
AcDbLine
  8
0
 62
256
370
0
  6
ByLayer
 10
24.709540513700567
 20
140.7855865196119112
 30
0.0
 11
24.7095404914332271
 21
137.785586428413751
 31
0.0
  0
LINE
  5
BE
100
AcDbEntity
100
AcDbLine
  8
0
 62
256
370
0
  6
ByLayer
 10
10.080627266682157
 20
106.5211961417262927
 30
0.0
 11
7.0806272666821144
 21
106.5211961484376673
 31
0.0
  0
ARC
  5
BF
100
AcDbEntity
  8
0
 62
256
370
0
  6
ByLayer
100
AcDbCircle
 10
22.2476867948937311
 20
125.6140627219419343
 30
0.0
 40
3.0
100
AcDbArc
 50
359.9999991462263438
 51
89.9999989999995051
  0
LINE
  5
C0
100
AcDbEntity
100
AcDbLine
  8
0
 62
256
370
0
  6
ByLayer
 10
22.2476868472535898
 20
128.6140627219420196
 30
0.0
 11
22.2476868472538065
 21
128.614062721942048
 31
0.0
  0
ARC
  5
C1
100
AcDbEntity
  8
0
 62
256
370
0
  6
ByLayer
100
AcDbCircle
 10
22.2476867948937311
 20
125.6140627219419343
 30
0.0
 40
3.0
100
AcDbArc
 50
89.999998999997203
 51
179.9999991462263438
  0
LINE
  5
C2
100
AcDbEntity
100
AcDbLine
  8
0
 62
256
370
0
  6
ByLayer
 10
19.2476867948936565
 20
125.6140627743016864
 30
0.0
 11
19.2476867250805839
 21
121.6140627743022549
 31
0.0
  0
ARC
  5
C3
100
AcDbEntity
  8
0
 62
256
370
0
  6
ByLayer
100
AcDbCircle
 10
22.2476867250804986
 20
121.6140627219424744
 30
0.0
 40
3.0
100
AcDbArc
 50
179.9999991462263438
 51
269.9999989999994909
  0
LINE
  5
C4
100
AcDbEntity
100
AcDbLine
  8
0
 62
256
370
0
  6
ByLayer
 10
22.2476866727204339
 20
118.6140627219423322
 30
0.0
 11
22.2476866727207181
 21
118.6140627219423891
 31
0.0
  0
LINE
  5
C5
100
AcDbEntity
100
AcDbLine
  8
0
 62
256
370
0
  6
ByLayer
 10
25.2476867948938057
 20
125.614062669582168
 30
0.0
 11
25.2476867250804986
 21
121.6140626695826654
 31
0.0
  0
ARC
  5
C6
100
AcDbEntity
  8
0
 62
256
370
0
  6
ByLayer
100
AcDbCircle
 10
22.2476867250804986
 20
121.6140627219424744
 30
0.0
 40
3.0
100
AcDbArc
 50
269.9999989999971604
 51
359.9999991462263438
  0
LINE
  5
C7
100
AcDbEntity
100
AcDbLine
  8
0
 62
1
370
0
  6
ByLayer
 10
60.0000000000000213
 20
148.0000000678154493
 30
0.0
 11
55.1265394065761427
 21
120.3612333733042306
 31
0.0
  0
LINE
  5
C8
100
AcDbEntity
100
AcDbLine
  8
0
 62
256
370
0
  6
ByLayer
 10
62.9544232533391437
 20
147.4790555025030869
 30
0.0
 11
58.080962659915329
 21
119.8402888079918682
 31
0.0
  0
LINE
  5
C9
100
AcDbEntity
100
AcDbLine
  8
0
 62
256
370
0
  6
ByLayer
 10
62.9544232533391437
 20
147.4790555025030869
 30
0.0
 11
60.0000000000000213
 21
148.0000000678154493
 31
0.0
  0
LINE
  5
CA
100
AcDbEntity
100
AcDbLine
  8
0
 62
256
370
0
  6
ByLayer
 10
58.080962659915329
 20
119.8402888079918682
 30
0.0
 11
55.1265394065761427
 21
120.3612333733042306
 31
0.0
  0
ARC
  5
CB
100
AcDbEntity
  8
0
 62
256
370
0
  6
ByLayer
100
AcDbCircle
 10
23.0
 20
155.0
 30
0.0
 40
3.0
100
AcDbArc
 50
180.0
 51
270.0
  0
LINE
  5
CC
100
AcDbEntity
100
AcDbLine
  8
0
 62
256
370
0
  6
ByLayer
 10
23.0
 20
152.0
 30
0.0
 11
107.0
 21
152.0
 31
0.0
  0
ARC
  5
CD
100
AcDbEntity
  8
0
 62
256
370
0
  6
ByLayer
100
AcDbCircle
 10
107.0
 20
155.0
 30
0.0
 40
3.0
100
AcDbArc
 50
270.0
 51
0.0
  0
LINE
  5
CE
100
AcDbEntity
100
AcDbLine
  8
0
 62
256
370
0
  6
ByLayer
 10
20.0
 20
188.0
 30
0.0
 11
20.0
 21
155.0
 31
0.0
  0
ARC
  5
CF
100
AcDbEntity
  8
0
 62
256
370
0
  6
ByLayer
100
AcDbCircle
 10
25.0
 20
188.0
 30
0.0
 40
5.0
100
AcDbArc
 50
90.0
 51
180.0
  0
LINE
  5
D0
100
AcDbEntity
100
AcDbLine
  8
0
 62
256
370
0
  6
ByLayer
 10
105.0
 20
193.0
 30
0.0
 11
25.0
 21
193.0
 31
0.0
  0
LINE
  5
D1
100
AcDbEntity
100
AcDbLine
  8
0
 62
256
370
0
  6
ByLayer
 10
110.0
 20
155.0
 30
0.0
 11
110.0
 21
188.0
 31
0.0
  0
ARC
  5
D2
100
AcDbEntity
  8
0
 62
256
370
0
  6
ByLayer
100
AcDbCircle
 10
105.0
 20
188.0
 30
0.0
 40
5.0
100
AcDbArc
 50
0.0
 51
90.0
  0
CIRCLE
  5
D3
100
AcDbEntity
100
AcDbCircle
  8
0
 62
256
370
0
  6
ByLayer
 10
206.0
 20
16.0
 30
0.0
 40
6.0
  0
CIRCLE
  5
D4
100
AcDbEntity
100
AcDbCircle
  8
0
 62
256
370
0
  6
ByLayer
 10
226.0
 20
16.0
 30
0.0
 40
6.0
  0
LINE
  5
D5
100
AcDbEntity
100
AcDbLine
  8
0
 62
256
370
0
  6
ByLayer
 10
87.0
 20
138.0
 30
0.0
 11
95.0
 21
138.0
 31
0.0
  0
LINE
  5
D6
100
AcDbEntity
100
AcDbLine
  8
0
 62
256
370
0
  6
ByLayer
 10
95.0
 20
138.0
 30
0.0
 11
95.0
 21
134.0
 31
0.0
  0
LINE
  5
D7
100
AcDbEntity
100
AcDbLine
  8
0
 62
256
370
0
  6
ByLayer
 10
95.0
 20
134.0
 30
0.0
 11
87.0
 21
134.0
 31
0.0
  0
LINE
  5
D8
100
AcDbEntity
100
AcDbLine
  8
0
 62
256
370
0
  6
ByLayer
 10
87.0
 20
134.0
 30
0.0
 11
87.0
 21
138.0
 31
0.0
  0
CIRCLE
  5
D9
100
AcDbEntity
100
AcDbCircle
  8
0
 62
256
370
0
  6
ByLayer
 10
98.5
 20
136.0
 30
0.0
 40
1.1000000000000001
  0
CIRCLE
  5
DA
100
AcDbEntity
100
AcDbCircle
  8
0
 62
256
370
0
  6
ByLayer
 10
83.5
 20
136.0
 30
0.0
 40
1.1000000000000001
  0
LINE
  5
DB
100
AcDbEntity
100
AcDbLine
  8
0
 62
256
370
0
  6
ByLayer
 10
81.0
 20
139.0
 30
0.0
 11
101.0
 21
139.0
 31
0.0
  0
LINE
  5
DC
100
AcDbEntity
100
AcDbLine
  8
0
 62
256
370
0
  6
ByLayer
 10
101.0
 20
139.0
 30
0.0
 11
101.0
 21
133.0
 31
0.0
  0
LINE
  5
DD
100
AcDbEntity
100
AcDbLine
  8
0
 62
256
370
0
  6
ByLayer
 10
101.0
 20
133.0
 30
0.0
 11
81.0
 21
133.0
 31
0.0
  0
LINE
  5
DE
100
AcDbEntity
100
AcDbLine
  8
0
 62
256
370
0
  6
ByLayer
 10
81.0
 20
133.0
 30
0.0
 11
81.0
 21
139.0
 31
0.0
  0
CIRCLE
  5
DF
100
AcDbEntity
100
AcDbCircle
  8
0
 62
256
370
0
  6
ByLayer
 10
222.0
 20
171.0
 30
0.0
 40
1.5
  0
LINE
  5
E0
100
AcDbEntity
100
AcDbLine
  8
0
 62
256
370
0
  6
ByLayer
 10
130.4911653412825672
 20
161.0129540258348584
 30
0.0
 11
170.0
 21
159.0
 31
0.0
  0
LINE
  5
E1
100
AcDbEntity
100
AcDbLine
  8
0
 62
256
370
0
  6
ByLayer
 10
130.4911653412825672
 20
180.9870459741651985
 30
0.0
 11
170.0
 21
183.0
 31
0.0
  0
CIRCLE
  5
E2
100
AcDbEntity
100
AcDbCircle
  8
0
 62
256
370
0
  6
ByLayer
 10
131.0
 20
171.0
 30
0.0
 40
1.5
  0
ARC
  5
E3
100
AcDbEntity
  8
0
 62
1
370
0
  6
CONTINUOUS
100
AcDbCircle
 10
222.0
 20
171.0
 30
0.0
 40
6.0
100
AcDbArc
 50
295.8616646735613926
 51
64.1383353264385789
  0
ARC
  5
E4
100
AcDbEntity
  8
0
 62
1
370
0
  6
CONTINUOUS
100
AcDbCircle
 10
131.0
 20
171.0
 30
0.0
 40
10.0
100
AcDbArc
 50
92.9166673697280743
 51
267.0833326302719115
  0
LINE
  5
E5
100
AcDbEntity
100
AcDbLine
  8
0
 62
256
370
0
  6
ByLayer
 10
211.0
 20
158.8499999999999943
 30
0.0
 11
226.9500000000000171
 21
158.8500000000000227
 31
0.0
  0
ARC
  5
E6
100
AcDbEntity
  8
0
 62
256
370
0
  6
ByLayer
100
AcDbCircle
 10
226.9499999999999886
 20
157.7999999999999545
 30
0.0
 40
1.05
100
AcDbArc
 50
360.0
 51
90.0
  0
LINE
  5
E7
100
AcDbEntity
100
AcDbLine
  8
0
 62
256
370
0
  6
ByLayer
 10
228.0
 20
157.7999999999999829
 30
0.0
 11
228.0
 21
150.0
 31
0.0
  0
LINE
  5
E8
100
AcDbEntity
100
AcDbLine
  8
0
 62
256
370
0
  6
ByLayer
 10
226.9499999999999886
 20
148.9499999999999886
 30
0.0
 11
209.0
 21
148.9500000000000171
 31
0.0
  0
ARC
  5
E9
100
AcDbEntity
  8
0
 62
256
370
0
  6
ByLayer
100
AcDbCircle
 10
226.9500000000000171
 20
150.0000000000000284
 30
0.0
 40
1.05
100
AcDbArc
 50
270.0
 51
360.0
  0
ARC
  5
EA
100
AcDbEntity
  8
0
 62
1
370
0
  6
CONTINUOUS
100
AcDbCircle
 10
211.0
 20
159.8999999999999773
 30
0.0
 40
1.0499999999999972
100
AcDbArc
 50
115.4751299364458674
 51
270.0
  0
LINE
  5
EB
100
AcDbEntity
100
AcDbLine
  8
0
 62
256
370
0
  6
ByLayer
 10
211.0
 20
183.1499999999999773
 30
0.0
 11
226.9500000000000171
 21
183.1499999999999488
 31
0.0
  0
ARC
  5
EC
100
AcDbEntity
  8
0
 62
256
370
0
  6
ByLayer
100
AcDbCircle
 10
226.9499999999999886
 20
184.2000000000000171
 30
0.0
 40
1.05
100
AcDbArc
 50
270.0
 51
360.0
  0
LINE
  5
ED
100
AcDbEntity
100
AcDbLine
  8
0
 62
256
370
0
  6
ByLayer
 10
228.0
 20
184.1999999999999886
 30
0.0
 11
228.0
 21
192.0
 31
0.0
  0
LINE
  5
EE
100
AcDbEntity
100
AcDbLine
  8
0
 62
256
370
0
  6
ByLayer
 10
226.9499999999999886
 20
193.0499999999999829
 30
0.0
 11
209.0000000000000284
 21
193.0499999999999829
 31
0.0
  0
ARC
  5
EF
100
AcDbEntity
  8
0
 62
256
370
0
  6
ByLayer
100
AcDbCircle
 10
226.9500000000000171
 20
191.9999999999999432
 30
0.0
 40
1.05
100
AcDbArc
 50
360.0
 51
90.0
  0
ARC
  5
F0
100
AcDbEntity
  8
0
 62
1
370
0
  6
CONTINUOUS
100
AcDbCircle
 10
211.0
 20
182.0999999999999943
 30
0.0
 40
1.0499999999999972
100
AcDbArc
 50
90.0
 51
244.5248700635540615
  0
LINE
  5
F1
100
AcDbEntity
100
AcDbLine
  8
0
 62
256
370
0
  6
ByLayer
 10
210.6644303692670803
 20
181.1050663223462038
 30
0.0
 11
224.6171988997371329
 21
176.3990989914257455
 31
0.0
  0
LINE
  5
F2
100
AcDbEntity
100
AcDbLine
  8
0
 62
256
370
0
  6
ByLayer
 10
210.6644303692670803
 20
160.8949336776537962
 30
0.0
 11
224.6171988997371329
 21
165.6009010085742261
 31
0.0
  0
LINE
  5
F3
100
AcDbEntity
100
AcDbLine
  8
0
 62
256
370
0
  6
ByLayer
 10
209.0000000000000284
 20
193.0499999999999829
 30
0.0
 11
170.0
 21
183.0
 31
0.0
  0
LINE
  5
F4
100
AcDbEntity
100
AcDbLine
  8
0
 62
256
370
0
  6
ByLayer
 10
170.0
 20
159.0
 30
0.0
 11
209.0
 21
148.9500000000000171
 31
0.0
  0
LINE
  5
F5
100
AcDbEntity
100
AcDbLine
  8
0
 62
256
370
0
  6
ByLayer
 10
226.0
 20
148.0
 30
0.0
 11
216.0
 21
148.0
 31
0.0
  0
LINE
  5
F6
100
AcDbEntity
100
AcDbLine
  8
0
 62
256
370
0
  6
ByLayer
 10
216.0
 20
148.0
 30
0.0
 11
216.0
 21
160.0
 31
0.0
  0
LINE
  5
F7
100
AcDbEntity
100
AcDbLine
  8
0
 62
256
370
0
  6
ByLayer
 10
216.0
 20
160.0
 30
0.0
 11
226.0
 21
160.0000000000000284
 31
0.0
  0
LINE
  5
F8
100
AcDbEntity
100
AcDbLine
  8
0
 62
256
370
0
  6
ByLayer
 10
226.0
 20
160.0000000000000284
 30
0.0
 11
226.0
 21
148.0
 31
0.0
  0
LINE
  5
F9
100
AcDbEntity
100
AcDbLine
  8
0
 62
256
370
0
  6
ByLayer
 10
226.0
 20
181.9999999999999432
 30
0.0
 11
216.0
 21
181.9999999999999716
 31
0.0
  0
LINE
  5
FA
100
AcDbEntity
100
AcDbLine
  8
0
 62
256
370
0
  6
ByLayer
 10
216.0
 20
181.9999999999999716
 30
0.0
 11
216.0
 21
193.9999999999999716
 31
0.0
  0
LINE
  5
FB
100
AcDbEntity
100
AcDbLine
  8
0
 62
256
370
0
  6
ByLayer
 10
216.0
 20
193.9999999999999716
 30
0.0
 11
226.0
 21
194.0
 31
0.0
  0
LINE
  5
FC
100
AcDbEntity
100
AcDbLine
  8
0
 62
256
370
0
  6
ByLayer
 10
226.0
 20
194.0
 30
0.0
 11
226.0
 21
181.9999999999999432
 31
0.0
  0
CIRCLE
  5
FD
100
AcDbEntity
100
AcDbCircle
  8
0
 62
256
370
0
  6
ByLayer
 10
206.0
 20
171.0
 30
0.0
 40
1.5
  0
CIRCLE
  5
FE
100
AcDbEntity
100
AcDbCircle
  8
0
 62
256
370
0
  6
ByLayer
 10
176.0
 20
171.0
 30
0.0
 40
1.5
  0
LINE
  5
FF
100
AcDbEntity
100
AcDbLine
  8
0
 62
256
370
0
  6
ByLayer
 10
60.7793367666934401
 20
145.566280203251921
 30
0.0
 11
8.7943136278294496
 21
141.23659395523174
 31
0.0
  0
LINE
  5
100
100
AcDbEntity
100
AcDbLine
  8
0
 62
256
370
0
  6
ByLayer
 10
10.209540385139718
 20
110.5211960806412037
 30
0.0
 11
62.5433212823644524
 21
125.006437757261466
 31
0.0
  0
LINE
  5
101
100
AcDbEntity
100
AcDbLine
  8
0
 62
256
370
0
  6
ByLayer
 10
9.880627368255924
 20
140.7855866847581581
 30
0.0
 11
24.709540513700567
 21
140.7855865196119112
 31
0.0
  0
LINE
  5
102
100
AcDbEntity
100
AcDbLine
  8
0
 62
256
370
0
  6
ByLayer
 10
24.7095404914332271
 20
137.785586428413751
 30
0.0
 11
15.0806273811235307
 21
137.7855865356487755
 31
0.0
  0
LINE
  5
103
100
AcDbEntity
100
AcDbLine
  8
0
 62
256
370
0
  6
ByLayer
 10
10.0806273254396359
 20
132.7855865356487755
 30
0.0
 11
10.080627266682157
 21
106.5211961417262927
 31
0.0
  0
LINE
  5
104
100
AcDbEntity
100
AcDbLine
  8
0
 62
256
370
0
  6
ByLayer
 10
7.0806272666821144
 20
106.5211961484376673
 30
0.0
 11
7.0806273370729729
 21
137.9855866847581467
 31
0.0
  0
LINE
  5
105
100
AcDbEntity
100
AcDbLine
  8
0
 62
256
370
0
  6
ByLayer
 10
10.0806272666821712
 20
43.4788039260891424
 30
0.0
 11
10.0806273254395862
 21
17.2144135321667022
 31
0.0
  0
LINE
  5
106
100
AcDbEntity
100
AcDbLine
  8
0
 62
256
370
0
  6
ByLayer
 10
15.0806273811234774
 20
12.2144135321667022
 30
0.0
 11
24.7095404914332235
 21
12.2144136394016982
 31
0.0
  0
LINE
  5
107
100
AcDbEntity
100
AcDbLine
  8
0
 62
256
370
0
  6
ByLayer
 10
8.7943136278293856
 20
8.7634061125837519
 30
0.0
 11
60.779336766693433
 21
4.4337198645635585
 31
0.0
  0
ARC
  5
108
100
AcDbEntity
  8
0
 62
256
370
0
  6
ByLayer
100
AcDbCircle
 10
57.4054346568229903
 20
74.9877066571405066
 30
0.0
 40
11.5945709015101528
100
AcDbArc
 50
331.8482066162298452
 51
28.2554166261731687
  0
ARC
  5
109
100
AcDbEntity
  8
0
 62
256
370
0
  6
ByLayer
100
AcDbCircle
 10
57.4054346568229903
 20
74.9877066571405066
 30
0.0
 40
15.5945709015101528
100
AcDbArc
 50
331.8482066162298452
 51
28.2554166261731687
  0
ARC
  5
10A
100
AcDbEntity
  8
0
 62
256
370
0
  6
ByLayer
100
AcDbCircle
 10
69.3917777089362744
 20
68.5736643877723964
 30
0.0
 40
1.9999999999999984
100
AcDbArc
 50
151.8482066162312378
 51
331.848206616232801
  0
ARC
  5
10B
100
AcDbEntity
  8
0
 62
256
370
0
  6
ByLayer
100
AcDbCircle
 10
69.3801578884631454
 20
81.4234165264404055
 30
0.0
 40
1.9999999999999667
100
AcDbArc
 50
28.2554166261763235
 51
208.2554166261763271
  0
LINE
  5
10C
100
AcDbEntity
100
AcDbLine
  8
0
 62
256
370
0
  6
ByLayer
 10
53.0
 20
114.5920726014330029
 30
0.0
 11
53.0
 21
114.7000001014329342
 31
0.0
  0
LINE
  5
10D
100
AcDbEntity
100
AcDbLine
  8
0
 62
256
370
0
  6
ByLayer
 10
53.0
 20
35.3000001014329428
 30
0.0
 11
53.0
 21
35.4079276014328812
 31
0.0
  0
ARC
  5
10E
100
AcDbEntity
  8
0
 62
256
370
0
  6
ByLayer
100
AcDbCircle
 10
85.8023520000001554
 20
74.9997736014330059
 30
0.0
 40
1.5
100
AcDbArc
 50
90.0
 51
180.0
  0
LINE
  5
10F
100
AcDbEntity
100
AcDbLine
  8
0
 62
256
370
0
  6
ByLayer
 10
84.3023520000001554
 20
74.9997736014330059
 30
0.0
 11
84.3023520000001554
 21
74.9997736014330059
 31
0.0
  0
ARC
  5
110
100
AcDbEntity
  8
0
 62
256
370
0
  6
ByLayer
100
AcDbCircle
 10
85.8023520000001554
 20
74.9997736014330059
 30
0.0
 40
1.5
100
AcDbArc
 50
180.0
 51
270.0
  0
LINE
  5
111
100
AcDbEntity
100
AcDbLine
  8
0
 62
256
370
0
  6
ByLayer
 10
89.8023520000001554
 20
73.4997736014330059
 30
0.0
 11
85.8023520000001554
 21
73.4997736014330059
 31
0.0
  0
ARC
  5
112
100
AcDbEntity
  8
0
 62
256
370
0
  6
ByLayer
100
AcDbCircle
 10
89.8023520000001554
 20
74.9997736014330059
 30
0.0
 40
1.5
100
AcDbArc
 50
270.0
 51
0.0
  0
LINE
  5
113
100
AcDbEntity
100
AcDbLine
  8
0
 62
256
370
0
  6
ByLayer
 10
91.3023520000001554
 20
74.9997736014330059
 30
0.0
 11
91.3023520000001554
 21
74.9997736014330059
 31
0.0
  0
LINE
  5
114
100
AcDbEntity
100
AcDbLine
  8
0
 62
256
370
0
  6
ByLayer
 10
85.8023520000001554
 20
76.4997736014330059
 30
0.0
 11
89.8023520000001554
 21
76.4997736014330059
 31
0.0
  0
ARC
  5
115
100
AcDbEntity
  8
0
 62
256
370
0
  6
ByLayer
100
AcDbCircle
 10
89.8023520000001554
 20
74.9997736014330059
 30
0.0
 40
1.5
100
AcDbArc
 50
0.0
 51
90.0
  0
ARC
  5
116
100
AcDbEntity
  8
0
 62
256
370
0
  6
ByLayer
100
AcDbCircle
 10
115.8023520000001554
 20
74.9997736014330059
 30
0.0
 40
1.5
100
AcDbArc
 50
90.0
 51
180.0
  0
LINE
  5
117
100
AcDbEntity
100
AcDbLine
  8
0
 62
256
370
0
  6
ByLayer
 10
114.3023520000001554
 20
74.9997736014330059
 30
0.0
 11
114.3023520000001554
 21
74.9997736014330059
 31
0.0
  0
ARC
  5
118
100
AcDbEntity
  8
0
 62
256
370
0
  6
ByLayer
100
AcDbCircle
 10
115.8023520000001554
 20
74.9997736014330059
 30
0.0
 40
1.5
100
AcDbArc
 50
180.0
 51
270.0
  0
LINE
  5
119
100
AcDbEntity
100
AcDbLine
  8
0
 62
256
370
0
  6
ByLayer
 10
119.8023520000001554
 20
73.4997736014330059
 30
0.0
 11
115.8023520000001554
 21
73.4997736014330059
 31
0.0
  0
ARC
  5
11A
100
AcDbEntity
  8
0
 62
256
370
0
  6
ByLayer
100
AcDbCircle
 10
119.8023520000001554
 20
74.9997736014330059
 30
0.0
 40
1.5
100
AcDbArc
 50
270.0
 51
0.0
  0
LINE
  5
11B
100
AcDbEntity
100
AcDbLine
  8
0
 62
256
370
0
  6
ByLayer
 10
121.3023520000001554
 20
74.9997736014330059
 30
0.0
 11
121.3023520000001554
 21
74.9997736014330059
 31
0.0
  0
LINE
  5
11C
100
AcDbEntity
100
AcDbLine
  8
0
 62
256
370
0
  6
ByLayer
 10
115.8023520000001554
 20
76.4997736014330059
 30
0.0
 11
119.8023520000001554
 21
76.4997736014330059
 31
0.0
  0
ARC
  5
11D
100
AcDbEntity
  8
0
 62
256
370
0
  6
ByLayer
100
AcDbCircle
 10
119.8023520000001554
 20
74.9997736014330059
 30
0.0
 40
1.5
100
AcDbArc
 50
0.0
 51
90.0
  0
LINE
  5
11E
100
AcDbEntity
100
AcDbLine
  8
0
 62
256
370
-1
  6
ByLayer
 10
6.2095409174102798
 20
110.5211958527365113
 30
0.0
 11
10.0806273668289563
 21
110.5211961261702811
 31
0.0
  0
LINE
  5
11F
100
AcDbEntity
100
AcDbLine
  8
0
 62
256
370
-1
  6
ByLayer
 10
10.209540385139718
 20
39.4788039871742455
 30
0.0
 11
62.5433212823644595
 21
24.9935623105539797
 31
0.0
  0
LINE
  5
120
100
AcDbEntity
100
AcDbLine
  8
0
 62
256
370
-1
  6
ByLayer
 10
6.2095409174102736
 20
39.478804215078938
 30
0.0
 11
10.209540385139718
 21
39.4788039871742455
 31
0.0
  0
LINE
  5
121
100
AcDbEntity
100
AcDbLine
  8
0
 62
256
370
-1
  6
ByLayer
 10
210.5483747601591062
 20
181.1520893276586435
 30
0.0
 11
210.6644303692670803
 21
181.1050663223462038
 31
0.0
  0
LINE
  5
122
100
AcDbEntity
100
AcDbLine
  8
0
 62
256
370
-1
  6
ByLayer
 10
210.5483747601591062
 20
160.8479106723413281
 30
0.0
 11
210.6644303692670803
 21
160.8949336776537962
 31
0.0
  0
LINE
  5
123
100
AcDbEntity
100
AcDbLine
  8
0
 62
256
370
0
  6
ByLayer
 10
7.0806273370729231
 20
12.014413376793291
 30
0.0
 11
7.0806272666821428
 21
43.4788039193777536
 31
0.0
  0
LINE
  5
124
100
AcDbEntity
100
AcDbLine
  8
0
 62
256
370
0
  6
ByLayer
 10
24.7095405137005457
 20
9.2144135482035381
 30
0.0
 11
9.8806273682558849
 21
9.214413383057332
 31
0.0
  0
ARC
  5
125
100
AcDbEntity
  8
0
 62
256
370
-1
  6
ByLayer
100
AcDbCircle
 10
9.880627337072923
 20
12.014413383057331
 30
0.0
 40
2.7999999999999998
100
AcDbArc
 50
180.0
 51
270.0000006380900572
  0
CIRCLE
  5
126
100
AcDbEntity
100
AcDbCircle
  8
0
 62
256
370
-1
  6
ByLayer
 10
10.0
 20
12.0
 30
0.0
 40
2.0
  0
CIRCLE
  5
127
100
AcDbEntity
100
AcDbCircle
  8
0
 62
256
370
-1
  6
ByLayer
 10
10.0
 20
138.0
 30
0.0
 40
2.0
  0
LINE
  5
128
100
AcDbEntity
100
AcDbLine
  8
axes
 62
256
370
-1
  6
ByLayer
 10
71.0
 20
117.5000001014329456
 30
0.0
 11
71.0
 21
32.5000001014329456
 31
0.0
  0
LINE
  5
129
100
AcDbEntity
100
AcDbLine
  8
0
 62
256
370
-1
  6
ByLayer
 10
73.0085027617888045
 20
114.7319108477480682
 30
0.0
 11
72.9886629842815751
 21
114.951711762064221
 31
0.0
  0
ARC
  5
12A
100
AcDbEntity
  8
0
 62
256
370
0
  6
ByLayer
100
AcDbCircle
 10
75.0999999999999943
 20
114.9206945932215405
 30
0.0
 40
2.1000000000000001
100
AcDbArc
 50
185.1576828518432194
 51
278.3008509807589235
  0
ARC
  5
12B
100
AcDbEntity
  8
0
 62
256
370
0
  6
ByLayer
100
AcDbCircle
 10
70.2000000000000028
 20
114.7000001014329342
 30
0.0
 40
2.7999999999999998
100
AcDbArc
 50
5.1576828518435187
 51
90.0
  0
LINE
  5
12C
100
AcDbEntity
100
AcDbLine
  8
0
 62
256
370
-1
  6
ByLayer
 10
73.0085027633288206
 20
35.2680893521527707
 30
0.0
 11
72.9886629822282345
 21
35.0482884180530334
 31
0.0
  0
ARC
  5
12D
100
AcDbEntity
  8
0
 62
256
370
0
  6
ByLayer
100
AcDbCircle
 10
70.2000000000000028
 20
35.3000001014329428
 30
0.0
 40
2.7999999999999998
100
AcDbArc
 50
270.0
 51
354.8423166807646112
  0
ARC
  5
12E
100
AcDbEntity
  8
0
 62
256
370
0
  6
ByLayer
100
AcDbCircle
 10
75.0999999999999943
 20
35.0793055896178387
 30
0.0
 40
2.1000000000000001
100
AcDbArc
 50
81.6991485517283422
 51
174.8423166807646396
  0
MTEXT
  5
12F
100
AcDbEntity
100
AcDbMText
  8
0
 62
256
370
0
  6
ByLayer
 10
252.5408549783549006
 20
81.3479437229438531
 30
0.0
 40
6.0
 41
100.0
 71
5
 72
2
  1
KartArgia\~v6\~-\~17/12/2005
  7
normallatin1
 50
90.0
 73
0
 44
1.0
  0
MTEXT
  5
130
100
AcDbEntity
100
AcDbMText
  8
0
 62
256
370
0
  6
ByLayer
 10
261.367153679653768
 20
82.6382575757577058
 30
0.0
 40
5.0
 41
100.0
 71
5
 72
2
  1
Planche\~de\~d\U+00e9coupe\~-\~PVC\~expans\U+00e9\~ep.\~3mm
  7
normallatin1
 50
90.0
 73
0
 44
1.0
  0
LINE
  5
131
100
AcDbEntity
100
AcDbLine
  8
axes
 62
256
370
-1
  6
ByLayer
 10
211.2605939999998554
 20
53.7489186014330045
 30
0.0
 11
211.2605939999998554
 21
63.7489186014330045
 31
0.0
  0
LINE
  5
132
100
AcDbEntity
100
AcDbLine
  8
axes
 62
256
370
-1
  6
ByLayer
 10
211.2605939999998554
 20
86.2488646014329134
 30
0.0
 11
211.2605939999998554
 21
96.2488646014329134
 31
0.0
  0
LINE
  5
133
100
AcDbEntity
100
AcDbLine
  8
axes
 62
256
370
-1
  6
ByLayer
 10
206.2605939999998554
 20
91.2488646014329134
 30
0.0
 11
216.2605939999998554
 21
91.2488646014329134
 31
0.0
  0
LINE
  5
134
100
AcDbEntity
100
AcDbLine
  8
axes
 62
256
370
-1
  6
ByLayer
 10
206.2605939999998554
 20
58.7489186014330045
 30
0.0
 11
216.2605939999998554
 21
58.7489186014330045
 31
0.0
  0
CIRCLE
  5
135
100
AcDbEntity
100
AcDbCircle
  8
0
 62
256
370
-1
  6
ByLayer
 10
188.7604270000001634
 20
91.2488646014329134
 30
0.0
 40
1.1000000000000001
  0
CIRCLE
  5
136
100
AcDbEntity
100
AcDbCircle
  8
0
 62
256
370
-1
  6
ByLayer
 10
211.2605939999998554
 20
91.2488646014329134
 30
0.0
 40
1.1000000000000001
  0
CIRCLE
  5
137
100
AcDbEntity
100
AcDbCircle
  8
0
 62
256
370
-1
  6
ByLayer
 10
211.2605939999998554
 20
58.7489186014330045
 30
0.0
 40
1.1000000000000001
  0
CIRCLE
  5
138
100
AcDbEntity
100
AcDbCircle
  8
0
 62
256
370
-1
  6
ByLayer
 10
188.7604270000001634
 20
58.7489186014330045
 30
0.0
 40
1.1000000000000001
  0
ENDSEC
  0
SECTION
  2
OBJECTS
  0
DICTIONARY
  5
C
100
AcDbDictionary
280
0
281
1
  3
ACAD_GROUP
350
D
  3
ACAD_LAYOUT
350
1A
  3
ACAD_MLINESTYLE
350
17
  3
ACAD_PLOTSETTINGS
350
19
  3
ACAD_PLOTSTYLENAME
350
E
  3
AcDbVariableDictionary
350
139
  0
DICTIONARY
  5
D
100
AcDbDictionary
280
0
281
1
  0
ACDBDICTIONARYWDFLT
  5
E
100
AcDbDictionary
281
1
  3
Normal
350
F
100
AcDbDictionaryWithDefault
340
F
  0
ACDBPLACEHOLDER
  5
F
  0
DICTIONARY
  5
17
100
AcDbDictionary
280
0
281
1
  3
Standard
350
18
  0
MLINESTYLE
  5
18
100
AcDbMlineStyle
  2
STANDARD
 70
0
  3

 62
256
 51
90.0
 52
90.0
 71
2
 49
0.5
 62
256
  6
BYLAYER
 49
-0.5
 62
256
  6
BYLAYER
  0
DICTIONARY
  5
19
100
AcDbDictionary
280
0
281
1
  0
DICTIONARY
  5
1A
100
AcDbDictionary
281
1
  3
Layout1
350
1E
  3
Layout2
350
26
  3
Model
350
22
  0
LAYOUT
  5
1E
100
AcDbPlotSettings
  1

  2
C:\Program Files\AutoCAD 2002\plotters\DWF ePlot (optimized for plotting).pc3
  4

  6

 40
0.0
 41
0.0
 42
0.0
 43
0.0
 44
0.0
 45
0.0
 46
0.0
 47
0.0
 48
0.0
 49
0.0
140
0.0
141
0.0
142
1.0
143
1.0
 70
688
 72
0
 73
0
 74
5
  7

 75
16
147
1.0
148
0.0
149
0.0
100
AcDbLayout
  1
Layout1
 70
1
 71
1
 10
0.0
 20
0.0
 11
420.0
 21
297.0
 12
0.0
 22
0.0
 32
0.0
 14
100000000000000000000.0
 24
100000000000000000000.0
 34
100000000000000000000.0
 15
-100000000000000000000.0
 25
-100000000000000000000.0
 35
-100000000000000000000.0
146
0.0
 13
0.0
 23
0.0
 33
0.0
 16
1.0
 26
0.0
 36
0.0
 17
0.0
 27
1.0
 37
0.0
 76
0
330
1B
  0
LAYOUT
  5
22
100
AcDbPlotSettings
  1

  2
C:\Program Files\AutoCAD 2002\plotters\DWF ePlot (optimized for plotting).pc3
  4

  6

 40
0.0
 41
0.0
 42
0.0
 43
0.0
 44
0.0
 45
0.0
 46
0.0
 47
0.0
 48
0.0
 49
0.0
140
0.0
141
0.0
142
1.0
143
1.0
 70
1712
 72
0
 73
0
 74
0
  7

 75
0
147
1.0
148
0.0
149
0.0
100
AcDbLayout
  1
Model
 70
1
 71
0
 10
0.0
 20
0.0
 11
12.0
 21
9.0
 12
0.0
 22
0.0
 32
0.0
 14
0.0
 24
0.0
 34
0.0
 15
0.0
 25
0.0
 35
0.0
146
0.0
 13
0.0
 23
0.0
 33
0.0
 16
1.0
 26
0.0
 36
0.0
 17
0.0
 27
1.0
 37
0.0
 76
0
330
1F
  0
LAYOUT
  5
26
100
AcDbPlotSettings
  1

  2
C:\Program Files\AutoCAD 2002\plotters\DWF ePlot (optimized for plotting).pc3
  4

  6

 40
0.0
 41
0.0
 42
0.0
 43
0.0
 44
0.0
 45
0.0
 46
0.0
 47
0.0
 48
0.0
 49
0.0
140
0.0
141
0.0
142
1.0
143
1.0
 70
688
 72
0
 73
0
 74
5
  7

 75
16
147
1.0
148
0.0
149
0.0
100
AcDbLayout
  1
Layout2
 70
1
 71
2
 10
0.0
 20
0.0
 11
12.0
 21
9.0
 12
0.0
 22
0.0
 32
0.0
 14
0.0
 24
0.0
 34
0.0
 15
0.0
 25
0.0
 35
0.0
146
0.0
 13
0.0
 23
0.0
 33
0.0
 16
1.0
 26
0.0
 36
0.0
 17
0.0
 27
1.0
 37
0.0
 76
0
330
23
  0
DICTIONARY
  5
139
100
AcDbDictionary
281
1
  3
DIMASSOC
350
13B
  3
HIDETEXT
350
13A
  0
DICTIONARYVAR
  5
13A
100
DictionaryVariables
280
0
  1
2
  0
DICTIONARYVAR
  5
13B
100
DictionaryVariables
280
0
  1
1
  0
ENDSEC
  0
EOF
